Armor For Sleep - Car Underwater Chords & Tabs

 

Car Underwater Chords & Tabs

Armor For Sleep Chords & Tabs

Version: 3 Type: Tab 0 ratings
1 star 2 stars 3 stars 4 stars 5 stars
comments

Car Underwater Tab

Band: AFS
Song: Car Underwater
Tabber: Tony Dominic
Tuning: Drop D
Key:
... - palm mute
s - slide
h - hammer
p - pulloff
x - muted
~ - vibrato

afs is awesome and so is this song, i got bored so i tabbed it out
you'll need to listen to song to get right timing
and this has to be in drop d or it won't sound right
reverb is used in the breakdown and in the lead in the 2nd verse


Intro\Verse 1 (rhythm)
----------------------------------------|
----------------------------------------|
----------------------------------------|
-9-9-9-9-9-9-9-9--9-9--9-9-9------------|
-9-9-9-9-9-9-9-9--9-9--9-9-9------------|
-9-9-9-9-9-9-9-9--9-9--9-9-9------------|
 . . . . . . . .  . .  . . .

----------------------------------------|
----------------------------------------|
----------------------------------------|
-0-0-0-0-0-0-0-0--0-0--0-0-0------------|
-0-0-0-0-0-0-0-0--0-0--0-0-0------------|
-0-0-0-0-0-0-0-0--0-0--0-0-0------------|
 . . . . . . . .  . .  . . .

----------------------------------------|
----------------------------------------|
----------------------------------------|
-9-9-9-9-9-9-9-9--9-9--9-9-9------------|
-9-9-9-9-9-9-9-9--9-9--9-9-9------------|
-9-9-9-9-9-9-9-9--9-9--9-9-9------------|
 . . . . . . . .  . .  . . .

----------------------------------------|
----------------------------------------|
----------------------------------------| x3
----------------------------------------|
----------9-9-9-9-9s7-7-7-7-------------|
-11-11-11------------------9-9-9-9-9----|
 .  .  .  . . . . . . . . . . . . . .

(last part replaced with pre chorus on 3rd time)

pre chorus (rhythm)
---------------------------------------|
---------------------------------------|
-6-6-6-9-9-9-7-7-7-4-4-4---------------|
-x-x-x-x-x-x-x-x-x-x-x-x---------------|
-4-4-4-7-7-7-5-5-5-2-2-2---------------|
---------------------------------------|

chorus (rhythm and lead)
------------------------------------------------|
------------------------------------------------|
------------------------4-4-4-4-2-2-2-2---------|
-5--x--7-7--x--2-2-2-2--2-2-2-2-2-2-2-2---------| x4
-5--x--7-7--x--2-2-2-2--2-2-2-2-0-0-0-0---------|
-5--x--7-7--x--2-2-2-2--------------------------|

verse 2 (rhythm)
----------------------------------------|
----------------------------------------|
----------------------------------------|
-9-9-9-9-9-9-9-9--9-9--9-9-9------------|
-9-9-9-9-9-9-9-9--9-9--9-9-9------------|
-9-9-9-9-9-9-9-9--9-9--9-9-9------------|
 . . . . . . . .  . .  . . .

----------------------------------------|
----------------------------------------|
----------------------------------------|
-0-0-0-0-0-0-0-0--0-0--0-0-0------------| x2
-0-0-0-0-0-0-0-0--0-0--0-0-0------------|
-0-0-0-0-0-0-0-0--0-0--0-0-0------------|
 . . . . . . . .  . .  . . .
[ Tab from: http://www.guitartabs.cc/tabs/a/armor_for_sleep/car_underwater_tab_ver_3.html ]
verse 2 (lead with reverb)
-------------------------------------------------------5----------|
----------------------10s5-----------5s7-----------------5--------|
-s4------s4------------------------------------s4-------------s4--|
------------------------------------------------------------------|
------------------------------------------------------------------|
------------------------------------------------------------------|

pre chorus (rhythm)
---------------------------------------|
---------------------------------------|
-6-6-6-9-9-9-7-7-7-4-4-4---------------|
-x-x-x-x-x-x-x-x-x-x-x-x---------------|
-4-4-4-7-7-7-5-5-5-2-2-2---------------|
---------------------------------------|

chorus (lead and rhythm)
------------------------------------------------|
------------------------------------------------|
------------------------4-4-4-4-2-2-2-2---------|
-5--x--7-7--x--2-2-2-2--2-2-2-2-2-2-2-2---------| x4
-5--x--7-7--x--2-2-2-2--2-2-2-2-0-0-0-0---------|
-5--x--7-7--x--2-2-2-2--------------------------|

breakdown (lead with reverb)
---------------------------------|
---------------------------------|
---------------------------------|
------7~------------4~-----------|x2
-2s5-----------------------------|
--------------0--2---------------|

breakdown cont. (lead with reverb)
--------------------------------------------------|
--7p5-----------7p5-------------7p5---------------|
--------4h6------------4h6--------------4h6-------|
--------------------------------------------------|
--------------------------------------------------|
--------------------------------------------------|

breakdown cont. (rhythm)
---------------------------|---------------------------------------------|
---------------------------|---------------------------------------------|
---------------------------|---------------------------------------------|
---------------------------|-9--9-9-9--7--7-7-7--5--5-5-5--5-5-5--5-5-5--|
-0-2-2-2-2-2-2-2-2-2-2-2-2-|-9--9-9-9--7--7-7-7--5--5-5-5--5-5-5--5-5-5--|
---------------------------|-9--9-9-9--7--7-7-7--5--5-5-5--5-5-5--5-5-5--|

breakdown cont. (lead with reverb)
--------14--------14-------------|
--10-12-----10-12-----10-12------|
---------------------------------|x2
---------------------------------|
---------------------------------|
---------------------------------|

chorus (rhythm and lead)
------------------------------------------------|
------------------------------------------------|
------------------------4-4-4-4-2-2-2-2---------|
-5--x--7-7--x--2-2-2-2--2-2-2-2-2-2-2-2---------| x6
-5--x--7-7--x--2-2-2-2--2-2-2-2-0-0-0-0---------|
-5--x--7-7--x--2-2-2-2--------------------------|

outro (rhythm and lead)
-------------------------------------|
-------------------------------------|
-------------------------------------|
-5--x--7-7--x--2-2~------------------|
-5--x--7-7--x--2-2~------------------|
-5--x--7-7--x--2-2~------------------|


okay thats everything, the reverb for the lead guitar is just optinal and
one other thing i didnt put it is that one of the guitars can slide into
every chorus (it sounds like they do on the song) but that's just optional also

PLEASE RATE!!!!
Comments