Armageddon - The Juggernaut Divine Chords & Tabs

 

The Juggernaut Divine Chords & Tabs

Armageddon Chords & Tabs

Version: 1 Type: Tab 0 ratings
1 star 2 stars 3 stars 4 stars 5 stars
comments

The Juggernaut Divine Tab

   
Armageddon
"The Juggernaut Divine" 
from the album: "Crossing the Rubicon"

tabbed by" Nick Beato (entity@cfl.rr.com)

standard tuning

the intro leads might be a bit off.
i didn't even attempt the solo.

intro/chorus (pm gtr 1)

gtr 1
e -------------------------------------------------
B -------------------------------------------------
G -------------------------------------------------
D -------------------------------------------------
A -2---2-2-2-2-2---2-2-2-2-2---2-2-2-2-2---2-2-2-2-
E -0---0-0-0-0-0---0-0-0-0-0---0-0-0-0-0---0-0-0-0-

gtr 2 (sweep picking, yeah! hehe)
e -19p15-------------------3-----------------------
B ------17-------------------5---5-----------------
G --------16-------------------4---4---------------
D ----------17-----------------------5-------------
A ------------19-----------------------7~~---------
E --------------19~~-------------------------------

cont'd (play these chords in same rhythm)

gtr 1
e -------------------------------------------------
B -------------------------------------------------
G -------------------------------------------------
D -------------------------------------------------
A -3-----------------------------------------------
E -3-----------------------------------------------
gtr 2
e t20p15p12----------------------------------------
B ---------13---------------8----------------------
G -----------12---------------9---9----------------
D -------------14---------------10--10--10~~-------
A ---------------15~~-----------------10-----------
E -------------------------------------------------

cont'd

gtr 1
e -------------------------------------------------
B -------------------------------------------------
G -------------------------------------------------
D -------------------------------------------------
A -4-----------------------------------------------
E -4-----------------------------------------------
gtr 2
e t21p16p12----------------------------------------
B ---------14--------------------------------------
G -----------13-------------9----------------------
D -------------14-------------11--11---------------
A ---------------16~~-----------11--11-------------
E ------------------------------------12-9~~-------
cont'd
[ Tab from: http://www.guitartabs.cc/tabs/a/armageddon/the_juggernaut_divine_tab.html ]
gtr 1
e -------------------------------------------------
B -------------------------------------------------
G -------------------------------------------------
D -------------------------------------------------
A -3-----------------------------------------------
E -3-----------------------------------------------
gtr 2
e t20p15p12----------------------------------------
B ---------13---------------8----------------------
G -----------12---------------9---9----------------
D -------------14---------------10--10--10~~-------
A ---------------15~~-----------------10-----------
E -------------------------------------------------

verse riff

e -----------------------------------------------------------------------
B -----------------------------------------------------------------------
G -----------------------------------------------------------------------
D -----------------------------------------------------------------------
A --------10~~-9/10--10-10--10~~-9/10--7--7---10~~-9/10--12-12--9~~~-7/9-
E -0--0--------------8--8--------------5--5--------------10-10-----------

prechorus (not sure about this one)

e -----------------------------------------------------------------------
B -----------------------------------------------------------------------
G -----------------------------------------------------------------------
D --------------------------7/9-----9----------------------7/9-----10/12-
A ------/7~----6~-------------------7---/7~----7~------------------------
E -0--------6~----6~-5~-0-5-------0---0-----6~----6~-5~-0-5----0-7-------
                        . .                             . .    . .

tapping overdub for verse

e ----------|----------|-----------|-----------|
B ----------|----------|-----------|-----------|
G -t16p12p9-|-t17p12p9-|-t18p16p12-|-t19p16p12-|
D ----------|----------|-----------|-----------|
A ----------|----------|-----------|-----------|
E ----------|----------|-----------|-----------|

chord progression behind 1st solo section (i think this is it)
mute the strings between each chord (listen to the cd)

e -------------------------------------------------------
B -------------------------------------------------------
G -------------------------------------------------------
D -----10-9--------------------10-9----------------ph----
A -2---8--7--10-9--7--7/9--2---8--7--10-9--7--7/9--7~~~--
E -0---------8--7--5--5/7--0---------8--7--5--5/5--------

outro solo backing (it plays the same chords about 4 different ways, 
this is the chord progression, just improvise the rhthym)

e ----------------------------------------
B ----------------------------------------
G ----------------------------------------
D ----------------5-------5---4-5---7-9---
A -2---4------5---3-------3---2-3---5-7---
E -0---2------3---------------------------

Damn, looking at this again, a lot of the riffs i'm unsure about. I hope someone can 
use this to get a better version! 

email me for comments, complaints, and death threats (entity@cfl.rr.com)

This file was downloaded from... 
Musical Manifestations 
(http://home.cfl.rr.com/xezlorir/mm)
if the link is not found, email: Xezlorir@hotmail.com

enjoy!
Comments