Armageddon - Funeral In Space Chords & Tabs

 

Funeral In Space Chords & Tabs

Armageddon Chords & Tabs

Version: 1 Type: Tab 0 ratings
1 star 2 stars 3 stars 4 stars 5 stars
comments

Funeral In Space Tab

                       ARMAGEDDON - FUNERAL IN SPACE
                    From the Album CROSSING THE RUBICON
                        Version 1.0 - JANUARY 2001

Transcribed by: HARIS DURAKOVIC (THE FOREVERLORN)

For Questions, Comments, Newest Version, or Corrections contact
HARIS DURAKOVIC at: foreverlorn@gmx.de

Check Out Death Warp, With More Transcriptions On It:
 http://tiger.towson.edu/~dalvis1

..  - palm mute          /  - slide up to
 \  - slide down to      ~  - vibrato
 h  - hammer on          b  - bend
 p  - pull off            Suffixes for bend
                          ph - pinch harmonic
                           f - full bend    h - half bend
*  - see comment           r - release      t - tap bend
X  - percussion mute       ~ - vibrato bend
@  - slight palm mute     () - ghost note, sustained note

ARMAGEDDON - "Funeral in space"

Riff 1 (all acoustic)

	1.		2.			3.
|-----------0-------|---------0-------|----------0-------|
|--------6-----6----|------6-----6----|-------6-----6----|
|-----7-----------7-|---7-----------7-|----7-----------7-|
|--0----------------|-----------------|------------------|
|-------------------|-----------------|------------------|
|-------------------|-8---------------|-6----------------|

|-----------0-------|----------0-------|----------0-------|
|--------6-----6----|-------6-----6----|-------6-----6----|
|-----7-----------7-|----7-----------7-|----7-----------7-|
|-------------------|------------------|------------------|
|-------------------|------------------|------------------|
|--8----------------|-6----------------|-8----------------|

					  Repeat 1,2 and 3 with:
|-----------0-------|----------0-------|------------8-------|
|--------6-----6----|-------6-----6----|---------6-----6----|
|-----7-----------7-|----7-----------7-|------7-----------7-|
|--0----------------|-0----------------|---..---------------|
|-------------------|------------------|--------------------|
|-------------------|------------------|--------------------|
[ Tab from: http://www.guitartabs.cc/tabs/a/armageddon/funeral_in_space_tab.html ]
Riff 2
|-------------5----------|-------------6----------|
|----------6-----6-------|----------------6-------|
|-------7-----------7----|----------7--------7----|
|----7-----------------7-|-------8--------------8-|
|-5----------------------|----8-------------------|
|------------------------|-6----------------------|

|---------------8----------|-------------5----------|
|------------------8-------|----------------5-------|
|------------9--------9----|----------5--------5----|
|--------10-------------10-|-------7--------------7-|
|----10--------------------|----7-------------------|
|-8------------------------|-5----------------------|

|-------------6----------|-------------3----------|
|----------------6-------|----------3-----3-------|
|----------7--------7----|-------------------3----|
|-------8--------------8-|-------5--------------5-|
|----8-------------------|----5-------------------|
|-6----------------------|-3----------------------|

|-------------5----------|-------------5----------|
|----------6-----6-------|----------6-----6-------|
|-------7-----------7----|-------7-----------7----|
|----7-----------------7-|----7-----------------7-|
|-5----------------------|-5----------------------|
|------------------------|------------------------|


Lead flute on riff 2 transcribed for guitar:

|--------------------------------------|
|------------11--10h11p10p8------------|
|-7~--9--10-------------------10--9--7-|
|--------------------------------------|
|--------------------------------------|
|--------------------------------------|

|------------------------------------------|
|------------------------------------------|
|--------------14--12h14p12p10-------------|
|-10~--12--14-------------------14--12--10-|
|------------------------------------------|
|------------------------------------------|

|---------------------------------------------------|
|---------------------------------------------------|
|-------------12--10h12p10p9------------------10--9-|
|-8~--10--12------------------12--10--8--7~~--------|
|---------------------------------------------------|
|---------------------------------------------------|

Check Out Death Warp, With More Transcriptions On It:
 http://tiger.towson.edu/~dalvis1
Comments