Armageddon - Crossing The Rubicon Chords & Tabs

 

Crossing The Rubicon Chords & Tabs

Armageddon Chords & Tabs

Version: 1 Type: Tab 0 ratings
1 star 2 stars 3 stars 4 stars 5 stars
comments

Crossing The Rubicon Tab

   
-----------------------------------------------
GODFORSAKEN - Armageddon - Crossing The Rubicon

WAR - 1997

Standard Tuning (Low - High): E A D G B E

A1                                                             [x2]
|-----------------------------------------------------------------|
|-----------------------------------------------------------------|
|-----------------------------------------------------------------|
|-----------------------------------------------------------------|
|-----------------------------------------------------------------|
|-0-0-0-0-8-8-8-8-7-7-7-7-5-5-5-5-4-4-4-4-5-5-5-5-7-7-7-7-1-1-1-1-|

A2a
|-----------------------------------------------------------------|
|-----------------------------------------------------------------|
|-----------------------------------------------------------------|
|-----------------------------------------------------------------|
|---------8-8-8-8-7-7^8^7-5-5-5-5-4-4-4-4-5-5-5-5-7-7-7-7---------|
|-0-0-0-0-------------------------------------------------6-6-6-6-|

A2b
|-----------------------------------------------------------------|
|-----------------------------------------------------------------|
|-----------------------------------------------------------------|
|-----------------------------------------------------------------|
|---------8-8-8-8-7-7^8^7-5-5-5-5-4-4-4-4-5-5-5-5-7-7-7-7-8-8-8-8-|
|-5-5-5-5---------------------------------------------------------|

Repeat A1 & A2a

A2c
|-----------------------------------------------------------------|
|-----------------------------------------------------------------|
|-----------------------------------------------------------------|
|-----------------------------------------------------------------|
|---------8-8-8-8-7-7^8^7-5-5-5-5-4-4-4-4-5-5-5-5-7-7-7-7---------|
|-5-5-5-5-------------------------------------------------6-6-6-6-|

B                        [x5]
|---------------------------|
|---------------------------|
|---------------------------|
|-7--5-5--4~--7-6---5-4-----|
|-7--3------------7-----5-3-|
|-5-------------------------|
[ Tab from: http://www.guitartabs.cc/tabs/a/armageddon/crossing_the_rubicon_tab.html ]
C                      [x4]
|-------------------------|
|-------------------------|
|---------------5-------4-|
|-----7-8---------6-5-4---|
|-5-4-----8-6-7-----------|
|-------------------------|

Repeat A1, A2a, A2b, A1, A2a & A2c

D                                           [x4]
|------------------:---------------------------|
|------------------:---------------------------|
|------------------:---------------------------|
|-------9------9---:-------------6^7^6---6-----|
|-------7------7---:-------5-7-8-------8---8-7-|
|-0-0-0---0--0---0-:-5-7-8---------------------|
     {1, 2 & 3}                 {4}

E
|-------------------|
|-------------------|
|-------------------|
|-2-----------------|
|-2--8--7--5-7--8-7-|
|-0-----------------|

Repeat A1, A2a, A2b, A1, A2a, A2c, B & C
Repeat A1, A2a, A2b, A1, A2a, A2c & D

F1
|----------------------------------------|
|----------------------------------------|
|-------------------13^14^13----13-------|
|----------12-14-15----------15----15-14-|
|-12-14-15-------------------------------|
|----------------------------------------|

F2
|-------------------------------------------------------------|
|-------------------21^22^21----21-------22-------------------|
|----------19-21-22----------22----22-21----21----------------|
|-19-21-22-------------------------------------22\19----------|
|----------------------------------------------------19-------|
|-------------------------------------------------------20-17-|

Solo (2:51 to 3:24): Bass & Clean guitar obscured in background

|-------|
|-------|
|-------|
|-------|
|-3/(7)-|
|-1/(5)-|

Repeat B, C, D, F1 & F2

                [x5]                               [Fade: x14]
|------------------|--------------------|--------------------|
|------------------|--------------------|--------------------|
|------------------|--------------------|--------------------|
|-------9------9---|-------12------12---|-------12------12---|
|-------7------7---|-------10------10---|-------13------13---|
|-0-0-0---0--0---0-|-0-0-0----0--0----0-|-0-0-0----0--0----0-|

Additions/Corrections to: Mike Reeves 

-------------------------------------------------------
M J Reeves
mjr@soton.ac.uk
Comments