Arkells - Im Not The Sun Chords & Tabs

 

Im Not The Sun Chords & Tabs

Arkells Chords & Tabs

Version: 1 Type: Bass Tab 0 ratings
1 star 2 stars 3 stars 4 stars 5 stars
comments

Im Not The Sun Bass Tab

*I do not own any of the below music.
All rights belong to the original owners including:
Universal Music Canada Inc., 2450 Victoria Park Ave., Suite 1, Toronto, Ontario M2J 5H3, 
2008 Dine Alone Music Inc.,
AND Arkells Music Inc., 2011. This is 100% transcribed by my own ear, any corrections/comments
e-mail: flintknapper7@hotmail.com

This is a sweet slow and saucy 2/3 ballad by Canadian(Hamilton) band Arkells.
Go listen to their music, and their passion for songwriting. Proud that they're
reppin' Canadians up here on the escarpment.
Enjoy.

I'm Not The Sun - Arkells

Into:(0:18)
G|----------------|   G|------------------|
D|2:--------------|x3 D|2:----------------|
A|3:--------------|   A|3:-2~---3~--2-----|
E|---3~---5~---0~-|   E|--------------3~--|

G|----------------|   G|--------------------|
D|2:--------------|x3 D|2:------------------|
A|3:--------------|   A|3:-2~---3~--3h5-----|
E|---3~---5~---0~-|   E|----------------3~--|

BREAK at (1:02)

Build Up(1:27)
G|-------------------------------------|
D|2:-----------------------------------|x8
A|3:---------------------------------5-|
E|---3-3-3-0h3-3-3-3-0h3-3-3-0h3-3-3---|
[ Tab from: http://www.guitartabs.cc/tabs/a/arkells/im_not_the_sun_btab.html ]
Guitar Solo 1:(2:15)
G|---------------------------| G|-----------------------------|
D|2:-------------------------| D|2:---------------------5-----|x3
A|3:-7-7-7\-5~--5\-3-3-3-----| A|3:-7-7-7\-5-5-5\-3-3-3---3-3-|
E|-----------------------3~--| E|-----------------------------|

G|---------------------------| G|-----------------------------|
D|2:-------------------------| D|2:---------------------------|
A|3:-7-7-7\-5~--5\-3-3-3-----| A|3:-7-7-7\-5-5-5\-3-3-3-3-3-3-|
E|-----------------------3~--| E|-----------------------------|

G|----------------|
D|2:-5------------|
A|3:---3-3-3-3-3--|
E|----------------|

Guitar Solo 2:(3:06)
G|---------------------------| G|------------------------5-5-|
D|2:---4---------------------| D|2:---4-5--------------5-----|
A|3:-7-----5~--5-3-----------| A|3:-7-----5~--5\-3-3-3-------|
E|-----------------0-5-3~--3-| E|----------------------------|

G|----------------------------| G|----------------------------|
D|2:---4-5--------------------| D|2:---4-5--------------------|
A|3:-7-----5~--5-3-2/-5-------| A|3:-7-----5~--5\-3-3-3-3-3-3-|
E|----------------------3~--3-| E|----------------------------|

Outro:(3:30)
G|---------------| G|-----------------------------------------|
D|2:-5-----------| D|2:-/-10-10-10-12-12-12-14-14-14-17-17-17-| END
A|3:---3-3-3-3-3-| A|3:---------------------------------------|
E|---------------| E|-----------------------------------------|




~ = LET RING
/ = SLIDE UP
\ = SLIDE DOWN
h = HAMMER ON
p = PULL OFF
Comments