Aria - The Volunteer Chords & Tabs

 

The Volunteer Chords & Tabs

Aria Chords & Tabs

Version: 1 Type: Tab 0 ratings
1 star 2 stars 3 stars 4 stars 5 stars
comments

The Volunteer Tab

The volunteer (1986 - With whom are you?)
ARIA - THE BEST RUSSIAN GROUP!!!

E||------------------|------------------|------------------|------------------|
B||------------------|------------------|------------------|------------------|
G||------------------|------------------|------------------|------------------|
D||------------------|------------------|------------------|------------------|
A||------------------|------------------|------------------|------------------|
E||------------------|------------------|------------------|------------------|


                                                                 
--------6-------6--4--|------------------|--------6-------6--4--|
-------------4--------|------------------|-------------4--------|
----------------------|------------------|----------------------|
----------------------|------------------|----------------------|
----------------------|------------------|----------------------|
----------------------|------------------|----------------------|


                                                                
----2----4----6------|--------6-------6--4--|------------------|
---------------------|-------------4--------|------------------|
---------------------|----------------------|------------------|
---------------------|----------------------|------------------|
---------------------|----------------------|------------------|
---------------------|----------------------|------------------|


                                                                    
--------6-------6--4--|----2----4----6------|--------7----6--7--9--|
-------------4--------|---------------------|----------------------|
----------------------|---------------------|----------------------|
----------------------|---------------------|----------------------|
----------------------|---------------------|----------------------|
----------------------|---------------------|----------------------|


                                                                              
----6----7----14------|----------------------9--|----------------14----14----|
----------------------|--------12----11--12-----|----11----12-------------12-|
----------------------|-------------------------|----------------------------|
----------------------|-------------------------|----------------------------|
----------------------|-------------------------|----------------------------|
----------------------|-------------------------|----------------------------|


                                                                    
-------------------------|------------------|--------6-------6--4--|
--------11--------11--9--|------------------|-------------4--------|
---------------8---------|------------------|----------------------|
-------------------------|------------------|----------------------|
-------------------------|------------------|----------------------|
-------------------------|------------------|----------------------|


                                                                               
----2----4------1-2-7-13-|-------------------------|-----------------------13-|
-------------------------|--------------------9----|--------------------12----|
-------------------------|--------------10-11---11-|--------------10-11-------|
-------------------------|-------------------------|--------------------------|
-------------------------|-------------------------|--------------------------|
-------------------------|-------------------------|--------------------------|


                                             
-------------------------|------------------|
--------------------9----|------------------|
--------------10-11---11-|------------------|
-------------------------|------------------|
-------------------------|------------------|
-------------------------|------------------|


                                                                    
----7-7-7--6-6-6-7-6-4-4-4-6-4-2-2-|--2-4-2-1-1-1-2-1-2-2-2--------|
-----------------------------------|-------------------------------|
-----------------------------------|-------------------------------|
-----------------------------------|-------------------------------|
-----------------------------------|-------------------------------|
-----------------------------------|-------------------------------|


                                                                         
----7-7-7--6-6-6-7-6-4-4-4-6-4-2-2-|--2-4-2-1-1-1-2-1-2-2-2----1-2-7-13-|
-----------------------------------|------------------------------------|
-----------------------------------|------------------------------------|
-----------------------------------|------------------------------------|
-----------------------------------|------------------------------------|
-----------------------------------|------------------------------------|


                                                                     
------------------|------------------|------------------------------|
------------------|------------------|------------------------------|
------------------|------------------|------------------------------|
------------------|------------------|--1--1-1-1--1-1-1--1-1-1--1-1-|
------------------|------------------|------------------------------|
------------------|------------------|------------------------------|


                                                               
-------------------------------|------------------------------|
-------------------------------|------------------------------|
-------------------------------|------------------------------|
--1--1-1-1--1-1-1--1-1-1-1-1-1-|--1--1-1-1--1-1-1--1-1-1--1-1-|
-------------------------------|------------------------------|
-------------------------------|------------------------------|


                                                               
-------------------------------|------------------------------|
-------------------------------|------------------------------|
-------------------------------|------------------------------|
--1--1-1-1--1-1-1--1-1-1-1-1-1-|--1--1-1-1--1-1-1--1-1-1--1-1-|
-------------------------------|------------------------------|
-------------------------------|------------------------------|


                                                               
-------------------------------|------------------------------|
-------------------------------|------------------------------|
-------------------------------|------------------------------|
--1--1-1-1--1-1-1--1-1-1-1-1-1-|--1--1-1-1--1-1-1--1-1-1--1-1-|
-------------------------------|------------------------------|
-------------------------------|------------------------------|


                                                                   
-------------------------|-------------------|--------------------|
-------------------------|-------------------|--------------------|
----------------3--------|-------------------|-----------6--------|
--1--1-1-1--1-1-1--------|--4----------------|-----------4--------|
-------------------------|--2----------------|--6-----------------|
-------------------------|-------------------|--4-----------------|


                                                                            
------------------------------|------------------------|-------------------|
------------------------------|------------------------|-------------------|
------------------------------|------------------------|-------------------|
--1--1-1-1--1-1-1--1-1-1--1-1-|--1--1-1-1--1-1---------|--4----------------|
------------------------------|------------------------|--2----------------|
------------------------------|------------------------|-------------------|


                                                    
--------------------|------------------------------|
--------------------|------------------------------|
--------------------|------------------------------|
-----------3--------|--1--1-1-1--1-1-1--1-1-1--1-1-|
--6--------1--------|------------------------------|
--4-----------------|------------------------------|


                                                               
-------------------------------|------------------------------|
-------------------------------|------------------------------|
-------------------------------|------------------------------|
--1--1-1-1--1-1-1--1-1-1-1-1-1-|--1--1-1-1--1-1-1--1-1-1--1-1-|
-------------------------------|------------------------------|
-------------------------------|------------------------------|


                                                               
-------------------------------|------------------------------|
-------------------------------|------------------------------|
-------------------------------|------------------------------|
--1--1-1-1--1-1-1--1-1-1-1-1-1-|--1--1-1-1--1-1-1--1-1-1--1-1-|
-------------------------------|------------------------------|
-------------------------------|------------------------------|


                                                               
-------------------------------|------------------------------|
-------------------------------|------------------------------|
-------------------------------|------------------------------|
--1--1-1-1--1-1-1--1-1-1-1-1-1-|--1--1-1-1--1-1-1--1-1-1--1-1-|
-------------------------------|------------------------------|
-------------------------------|------------------------------|


                                                               
-------------------------------|------------------------------|
-------------------------------|------------------------------|
-------------------------------|------------------------------|
--1--1-1-1--1-1-1--1-1-1-1-1-1-|--1--1-1-1--1-1-1--1-1-1--1-1-|
-------------------------------|------------------------------|
-------------------------------|------------------------------|


                                                                   
-------------------------|-------------------|--------------------|
-------------------------|-------------------|--------------------|
----------------3--------|-------------------|-----------6--------|
--1--1-1-1--1-1-1--------|--4----------------|-----------4--------|
-------------------------|--2----------------|--6-----------------|
-------------------------|-------------------|--4-----------------|


                                                                            
------------------------------|------------------------|-------------------|
------------------------------|------------------------|-------------------|
------------------------------|------------------------|-------------------|
--1--1-1-1--1-1-1--1-1-1--1-1-|--1--1-1-1--1-1---------|--4----------------|
------------------------------|------------------------|--2----------------|
------------------------------|------------------------|-------------------|

[ Tab from: http://www.guitartabs.cc/tabs/a/aria/the_volunteer_tab.html ]
                                                                             
--------------------|---------------------------|---------------------------|
--------------------|---------------------------|---------------------------|
--------------------|--3-----------6--5---------|--3-----------6--5---------|
-----------3--------|--3-----------6--5---------|--3-----------6--5---------|
--6--------1--------|--1-----1-1-1-4--3---1-1-1-|--1-----1-1-1-4--3---1-1-1-|
--4-----------------|---------------------------|---------------------------|


                                                     
---------------------------|------------------------|
---------------------------|------------------------|
--3-----------6--5---------|--3-----------6--5------|
--3-----------6--5---------|--3-----------6--5------|
--1-----1-1-1-4--3---1-1-1-|--1-----1-1-1-4--3------|
---------------------------|------------------------|


                                                        
---------------------------|---------------------------|
---------------------------|---------------------------|
--------------4--3---------|--------------4--3---------|
--6-----------4--3---------|--6-----------4--3---------|
--6-----------2--1---------|--6-----------2--1---------|
--4-----4-4-4--------4-4-4-|--4-----4-4-4--------4-4-4-|


                                                        
---------------------------|---------------------------|
---------------------------|---------------------------|
--------------4--3---------|--------------4--3---------|
--6-----------4--3---------|--6-----------4--3---------|
--6-----------2--1---------|--6-----------2--1---------|
--4-----4-4-4--------4-4-4-|--4-----4-4-4--------4-4-4-|


                                                                      
----------------------------------|----------------------------------|
----------------------------------|----------------------------------|
----------------------------------|----------------------------------|
--3-3-3-3-3-3-3-3-3-3-3-3-1-3-4-1-|--3-3-3-3-3-3-3-3-3-3-3-3-1-3-4-1-|
----------------------------------|----------------------------------|
----------------------------------|----------------------------------|


                                                                      
----------------------------------|----------------------------------|
----------------------------------|----------------------------------|
----------------------------------|----------------------------------|
--3-3-3-3-3-3-3-3-3-3-3-3-1-3-4-1-|--3-3-3-3-3-3-3-3-3-3-3-3-1-3-4-1-|
----------------------------------|----------------------------------|
----------------------------------|----------------------------------|


                                                                      
----------------------------------|----------------------------------|
----------------------------------|----------------------------------|
----------------------------------|----------------------------------|
--3-3-3-3-3-3-3-3-3-3-3-3-1-3-4-1-|--3-3-3-3-3-3-3-3-3-3-3-3-1-3-4-1-|
----------------------------------|----------------------------------|
----------------------------------|----------------------------------|


                                                                      
----------------------------------|----------------------------------|
----------------------------------|----------------------------------|
----------------------------------|----------------------------------|
--3-3-3-3-3-3-3-3-3-3-3-3-1-3-4-1-|--3-3-3-3-3-3-3-3-3-3-3-3-1-3-4-1-|
----------------------------------|----------------------------------|
----------------------------------|----------------------------------|


                                                                      
----------------------------------|----------------------------------|
----------------------------------|----------------------------------|
----------------------------------|----------------------------------|
--1-1-1-1-1-1-1-1-1-1-1-1-1-1-1-1-|--1-1-1-1-1-1-1-1-1-1-1-1-1-3-4-1-|
----------------------------------|----------------------------------|
----------------------------------|----------------------------------|


                                                                      
----------------------------------|----------------------------------|
----------------------------------|----------------------------------|
----------------------------------|----------------------------------|
--3-3-3-3-3-3-3-3-3-3-3-3-1-3-4-1-|--3-3-3-3-3-3-3-3-3-3-3-3-3-3-3---|
----------------------------------|--------------------------------4-|
----------------------------------|----------------------------------|


                                                                               
---------------------|----------------------------------|---------------------|
---------------------|----------------------------------|---------------------|
--3------6-----------|----------------------------------|--3------6-----------|
--3------6--4--------|--3-3-3-3-3-3-3-3-3-3-3-3-3-3-3---|--3------6--4--------|
--1------4--4--------|--------------------------------4-|--1------4--4--------|
------------2--------|----------------------------------|------------2--------|


                                                         
----------------------------------|---------------------|
----------------------------------|---------------------|
----------------------------------|--3------6-----------|
--3-3-3-3-3-3-3-3-3-3-3-3-3-3-3---|--3------6--4--------|
--------------------------------4-|--1------4--4--------|
----------------------------------|------------2--------|


                                                         
----------------------------------|---------------------|
----------------------------------|---------------------|
----------------------------------|--3------6-----------|
--3-3-3-3-3-3-3-3-3-3-3-3-3-3-3---|--3------6--4--------|
--------------------------------4-|--1------4--4--------|
----------------------------------|------------2--------|


                                                        
---------------------------|---------------------------|
---------------------------|---------------------------|
--3-----------6--5---------|--3-----------6--5---------|
--3-----------6--5---------|--3-----------6--5---------|
--1-----1-1-1-4--3---1-1-1-|--1-----1-1-1-4--3---1-1-1-|
---------------------------|---------------------------|


                                                     
---------------------------|------------------------|
---------------------------|------------------------|
--3-----------6--5---------|--3-----------6--5------|
--3-----------6--5---------|--3-----------6--5------|
--1-----1-1-1-4--3---1-1-1-|--1-----1-1-1-4--3------|
---------------------------|------------------------|


                                                        
---------------------------|---------------------------|
---------------------------|---------------------------|
--------------4--3---------|--------------4--3---------|
--6-----------4--3---------|--6-----------4--3---------|
--6-----------2--1---------|--6-----------2--1---------|
--4-----4-4-4--------4-4-4-|--4-----4-4-4--------4-4-4-|


                                                        
---------------------------|---------------------------|
---------------------------|---------------------------|
--------------4--3---------|--------------4--3---------|
--6-----------4--3---------|--6-----------4--3---------|
--6-----------2--1---------|--6-----------2--1---------|
--4-----4-4-4--------4-4-4-|--4-----4-4-4--------4-4-4-|


                                                              
--------6--8----------|--------6--7----------|--------6-------------|
-----7----------------|-----7----------------|-----7-----4----------|
--8-------------------|--8-------------------|--8-------------------|
----------------------|----------------------|----------------------|
----------------------|----------------------|----------------------|
----------------------|----------------------|----------------------|


                                                                     
-----2--6--9----------|--------6--8----------|--------6--7----------|
--4-------------------|-----7----------------|-----7----------------|
----------------------|--8-------------------|--8-------------------|
----------------------|----------------------|----------------------|
----------------------|----------------------|----------------------|
----------------------|----------------------|----------------------|


                                                                
--------6-------------|-------------------|--------------------|
-----7-----4----------|-------------------|--------------------|
--8-------------------|-------------------|-----------6--------|
----------------------|--4----------------|-----------4--------|
----------------------|--2----------------|--6-----------------|
----------------------|-------------------|--4-----------------|


                                                                      
------------------------|------------------------|-------------------|
--4---------4-----4-----|--4---------4-----4-----|-------------------|
--3---------3-----3-----|--3---------3-----3-----|-------------------|
--1-------1-1-1-1-1-----|--1-------1-1-1-1-1-----|--4----------------|
------------------------|------------------------|--2----------------|
------------------------|------------------------|-------------------|


                                                                       
--------------------|------------------------|------------------------|
--------------------|--4---------4-----4-----|--4---------4-----4-----|
-----------6--------|--3---------3-----3-----|--3---------3-----3-----|
-----------4--------|--1-------1-1-1-1-1-----|--1-------1-1-1-1-1-----|
--6-----------------|------------------------|------------------------|
--4-----------------|------------------------|------------------------|


                                                                  
-------------------|--------------------|------------------------|
-------------------|--------------------|--4---------4-----4-----|
-------------------|-----------6--------|--3---------3-----3-----|
--4----------------|-----------4--------|--1-------1-1-1-1-1-----|
--2----------------|--6-----------------|------------------------|
-------------------|--4-----------------|------------------------|


                                                                       
------------------------|--------------------|-------------------7-13-|
--4---------4-----4-----|--------------------|---------------6-7------|
--3---------3-----3-----|--------------------|------------------------|
--1-------1-1-1-1-1-----|--4------------4----|------------------------|
------------------------|--2------------2----|--6---------------------|
------------------------|--------------------|--4---------------------|
Comments