Aria - King Of Road Chords & Tabs

 

King Of Road Chords & Tabs

Aria Chords & Tabs

Version: 1 Type: Tab 0 ratings
1 star 2 stars 3 stars 4 stars 5 stars
comments

King Of Road Tab

   
King of road (1995 - Night is shorter than day)

Tempo: moderately fast (123 bpm)

INTRO: (0:01 - 0:11)

RIFF 1 (play 2 times):
Gtr.E||----- 11/8 measure --------------------------|
    H||---------------------------------------------|
    G||---------------------------------------------|
    D||---------------------------------------------|
    A||-5p3-5-5-5p3-5p3-5-5-5p3-5p3-5-5-5---3---6---|
    E||---------------------------------------------|


Gtr.E|------ 11/8 measure --------------------------||
    H|----------------------------------------------||
    G|----------------------------------------------||
    D|----------------------------------------------||
    A|--5p3-5-5-5p3-5p3-5-5-5p3-5p3-5-5-5---3-------||
    E|------------------------------------------6---||

(0:11 - 0:22)

RIFF 2:

Gtr.E|------- 11/8 measure ------------------------|
    H|---------------------------------------------|
    G|---------------------------------------------|
    D|---0h2-2-2p0---0h2-2-2p0---0h2-2-2---0---3---|
    A|---0h2-2-2p0---0h2-2-2p0---0h2-2-2---0---3---|
    E|-0-----------0-----------0-------------------|


Gtr.E|------- 11/8 measure ------------------------|
    H|---------------------------------------------|
    G|---------------------------------------------|
    D|---0h2-2-2p0---0h2-2-2p0---0h2-2-2---0-------|
    A|---0h2-2-2p0---0h2-2-2p0---0h2-2-2---0---3---|
    E|-0-----------0-----------0---------------3---|


Gtr.E|------- 11/8 measure ------------------------|
    H|---------------------------------------------|
    G|---------------------------------------------|
    D|---0h2-2-2p0---0h2-2-2p0---0h2-2-2---0---3---|
    A|---0h2-2-2p0---0h2-2-2p0---0h2-2-2---0---3---|
    E|-0-----------0-----------0-------------------|


Gtr.E|------- 10/8 measure --------------------|
    H|-----------------------------------------|
    G|-----------------------------------------|
    D|---0h2-2-2p0---0h2-2-2p0---0h2---2-2-2---|
    A|---0h2-2-2p0---0h2-2-2p0---0h2---------5-|
    E|-0-----------0-----------0-----0---------|

Measure: normal (4/4) from now on.

(0:22 - 0:38)

VERSE 1:

Voice
E|--------------------------------------------------------------------|
H|--------------------------------------------------------------------|
G|--------------------------------------------------------------------|
D|----------------------------------------------------------5-7-------|
A|---9-9--9---9---9-----7---5-------9-9-9----9-9---9-9-9--------------|
E|- Ya o ney mechtal vsyu zhizn´,  nakonetz  moi zhelanya sbylis´: ---|
      |                                  |                                 |
Gtr. E|----------------------------------|---------------------------------|
     H|----------------------------------|---------------------------------|
     G|----------------------------------|---------------------------------|
     D|----------------------------------|---------------------------------|
     A|(5)-5-5-5-5-5-5-5-5-5-5-5-5-5-5-5-|-5-5-5-5-5-5-5-5-5-5-5-5-5-5-5-5-|
     E|----------------------------------|---------------------------------|
 
VoiceE|--------------------------------------------------------------------|
     H|--------------------------------------------------------------------|
     G|--------------------------------------------------------------------|
     D|--5---------------------------------5-------------------------------|
     A|------7-7-------------------------------7-7-------------------------|
     E| Vot  ona!                         Vot  ona!  ----------------------|
      |                                  |                                 |
Gtr. E|----------------------------------|---------------------------------|
     H|----------------------------------|---------------------------------|
     G|----------------------------------|---------------------------------|
     D|--5---2-2-2-2-2-2-2-2-2-2-5h7p5\4-|-5---2-2-2-2-2-2-2-2-2-2-2-2-2---|
     A|----------------------------------|-------------------------------5-|
     E|----------------------------------|---------------------------------|
 
VoiceE|--------------------------------------------------------------------|
     H|--------------------------------------------------------------------|
     G|--------------------------------------------------------------------|
     D|------------------------------------------------------------5---7---|
     A|----9---9--9--9--9-7-------5-----9--9-9---9---9--9---9-9------------|
     E| Vsya blestit i manit vzglyad.  Na takoy ne greh otpravit´sya v ad -|
      |                                  |                                 |
Gtr. E|----------------------------------|---------------------------------|
     H|----------------------------------|---------------------------------|
     G|----------------------------------|---------------------------------|
     D|----------------------------------|---------------------------------|
     A|(5)-5-5-5-5-5-5-5-5-5-5-5-5-5-5-5-|-5-5-5-5-5-5-5-5-5-5-5-5-5-5-5-5-|
     E|----------------------------------|---------------------------------|
 
VoiceE|--------------------------------------------------------------------|
     H|--------------------------------------------------------------------|
     G|--------------------------------------------------------------------|
     D|--5---------------------------------5-------------------------------|
     A|------7-7-------------------------------7-7-------------------------|
     E| Vot  ona!                         Vot  ona!                   Chem |
      |                                  |                                 |
Gtr. E|----------------------------------|---------------------------------|
     H|----------------------------------|---------------------------------|
     G|----------------------------------|---------------------------------|
     D|--5---2-2-2-2-2-2-2-2-2-2-5h7p5\4-|-5---2-2-2-2-2-2-2-2-2-2-2-2-2-2-|
     A|----------------------------------|---------------------------------|
     E|----------------------------------|---------------------------------|

(0:38 - 0:54)

BRIDGE:

       dal´she,   tem  bol´she,    chem  bol´she  tem sil´ney.       Dru-
Gtr. E|---------------------------------|---------------------------------|
     H|---------------------------------|---------------------------------|
     G|---------------------------------|---------------------------------|
     D|-----------------3---------------|-2---------------5-----3-----2---|
     A|-1---1-1---1-1---1---1-1---1-1---|-1---1-1---1-1-------------------|
     E|---------------------------------|---------------------------------|

       zey   dushit    zavist´,       plevat´  mne  na druzey.    I dnem i
Gtr. E|---------------------------------|---------------------------------|
     H|---------------------------------|---------------------------------|
     G|---------------------------------|---------------------------------|
     D|-----------------3---------------|-2---------------5-----3-----2---|
     A|-3---3-3---3-3---3---3-3---3-3---|-3---3-3---3-3-------------------|
     E|---------------------------------|---------------------------------|

       nochyu ya budu mchat´sya     po  chernoy      polose.          Sli-
Gtr. E|---------------------------------|---------------------------------|
     H|---------------------------------|---------------------------------|
     G|---------------------------------|---------------------------------|
     D|-----------------3---------------|-2---------------5-----3-----2---|
     A|-1---1-1---1-1---1---1-1---1-1---|-1---1-1---1-1-------------------|
     E|---------------------------------|---------------------------------|

      lis´      vo - yedino      dva    prizraka     shosse. 
Gtr. E|---------------------------------|---------------------------------|
     H|---------------------------------|---------------------------------|
     G|---------------------------------|---------------------------------|
     D|-----------------3---------------|-2---------------5-------7-------|
     A|-3---3-3---3-3---3---3-3---3-3---|-3---3-3---3-3---3-------5-------|
     E|---------------------------------|---------------------------------|

(0:54 - 1:09)

CHORUS:

VoiceE|--------------------------------------------------------------------|
     H|--------------------------------------------------------------------|
     G|--------------------------------------------------------------------|
     D|--9-----------9------------9-------10-----------10---------10-------|
     A|---------7------------7------7--------------7-----------7-----7-----|
     E|-Ya     ko - rol´    do - rogi,    ya      ko - rol´    ot boga.  V |
      |                                  |                                 |
Gtr. E|----------------------------------|---------------------------------|
     H|----------------------------------|---------------------------------|
     G|----------------------------------|---------------------------------|
     D|--9-----------9-----------9-------|-10----------10----------10------|
     A|--7-----------7-----------7-------|-7-----------7-----------7-------|
     E|------0---0-------0---0-------0---|-----0---0-------0---0-------0---|
 
VoiceE|--------------------------------------------------------------------|
     H|--------------------------------------------------------------------|
     G|--------------------------------------------------------------------|
     D|--7------5----4----------------7----7--------5-4----5-------7-------|
     A|------------------5-------------------------------------------------|
     E|- ad     i - li  ray    ---   sa - ma       vybi - ra   -   ay  ----|
      |                                  |                                 |
Gtr. E|----------------------------------|---------------------------------|
     H|----------------------------------|---------------------------------|
     G|----------------------------------|---------------------------------|
     D|--7---------------7---------------|-4---------------5-------7-------|
     A|--5-----------0---5---------------|-2---------------3-------5-------|
     E|----------------------------------|---------------------------------|
 
VoiceE|--------------------------------------------------------------------|
     H|--------------------------------------------------------------------|
     G|--------------------------------------------------------------------|
     D|--9-----------9-----------9--------10----------10----------10-------|
     A|---------7------------7-------7------------7------------7------7----|
     E|-Zhit´  kak vse     mne skuchno,  mne      i  smert´    igrushka ---|
      |                                  |                                 |
Gtr. E|----------------------------------|---------------------------------|
     H|----------------------------------|---------------------------------|
     G|----------------------------------|---------------------------------|
     D|--9-----------9-----------9-------|-10----------10----------10------|
     A|--7-----------7-----------7-------|-7-----------7-----------7-------|
     E|------0---0-------0---0-------0---|-----0---0-------0---0-------0---|
 
VoiceE|-------------------------------------------------------------------|
     H|-------------------------------------------------------------------|
     G|-------------------------------------------------------------------|
     D|--7-------5-----4--------------7----7-------5---4----5-------------|
     A|------------------5------------------------------------------------|
     E|Sko  -  rost´ hrani,           u - da  -  chu  lo - vi!   ---------|
      |                                  |                                |
Gtr. E|----------------------------------|--------------------------------|
     H|----------------------------------|--------------------------------|
     G|----------------------------------|--------------------------------|
     D|--7---------------7---------------|-4---------------5-------2-2-2--|  <- the last 4 notes 
     A|--5-----------0---5---------------|-2---------------3-------------5|   are played only when
     E|----------------------------------|--------------------------------|      going to verse

(1:10 - 1:25) VERSE 2

(1:26 - 1:41) BRIDGE

(1:41 - 1:56) CHORUS

(1:57 - 2:12)

INTERLUDE:

VoiceE|-------------------------------------------------------------------|
     H|-------------------------------------------------------------------|
     G|-------------------------------------------------------------------|
     D|-----9---9--9----9----9----7-9----10--------------7--------9--10---|
     A|-------------------------------------------------------------------|
     E|-   My  na le - tu  sry - vali    vech    ---    nost´,    a  do - |
      |                                 |                                 |
Gtr.2E|- H5 ----------------------------|- C5 ----------------------------|
     H|---------------------------------|---------------------------------|
     G|---------------------------------|---------------------------------|
     D|---------------------------------|---------------------------------|
     A|-2---2-2-3p2p0-2-2---2-2-3p2p0-2-|-3---3-3-5p3p2-3-3---3-3-5p3p2-3-|
     E|---------------------------------|---------------------------------|
 
VoiceE|-------------------------------------------------------------------|
     H|-------------------------------------------------------------------|
     G|--7------5---------------------------------------------------------|
     D|---------------9-7------9----10----9-------------------------------|
     A|-------------------------------------------------------------------|
     E| ro  -  ga   shipe  -  la   zme - yoy.     ------------------------|
      |                                 |                                 |
Gtr.2E|- A5 ----------------------------|- H5  ---------------------------|
     H|---------------------------------|---------------------------------|
     G|---------------------------------|---------------------------------|
     D|---------------------------------|---------------------------------|
     A|-0---0-0-5p3p2-3-0---0-0-5p3p2p0-|-2---2-2-3p2p0-2-2---2-2-3p2p0-2-|
     E|---------------------------------|---------------------------------|
 
           Tela  sve - ti - lis´ slovno sve     -       chi     v e - toy
Gtr.2E|- H5 ----------------------------|- C5 ----------------------------|
     H|---------------------------------|---------------------------------|
     G|---------------------------------|---------------------------------|
     D|---------------------------------|---------------------------------|
     A|-2---2-2-3p2p0-2-2---2-2-3p2p0-2-|-3---3-3-5p3p2-3-3---3-3-5p3p2-3-|
     E|---------------------------------|---------------------------------|
       gon  -  ke   takoy     ne - zem - noy,  ne - zem - noy !
Gtr.2E|- A5 ----------------------------|- H5  ---------------------------|
     H|---------------------------------|---------------------------------|
     G|---------------------------------|---------------------------------|
     D|---------------------------------|---------------------------------|
     A|-0---0-0-5p3p2-3-0---0-0-5p3p2p0-|-2---2-2-3p2p0-2-2---2-2-3p2p0---|
     E|---------------------------------|---------------------------------|

SOLO:

(2:12 - 2:43)
[ Tab from: http://www.guitartabs.cc/tabs/a/aria/king_of_road_tab.html ]
PART A:
Gtr.1E|-5~~~~~~~~~~~~~~~~~------------------------------|-------------------------------------------------|
     H|-------------------------5h6h8-6--5--6--5-----5--|-------------------------------------------------|
     G|-------------------------------------------7-----|-7--5--------------------------------------------|
     D|-------------------------------------------------|-------7--5--------------------------------------|
     A|-------------------------------------------------|-------------7--5--------------------------------|
     E|-------------------------------------------------|-------------------8--5--------------------------|
      |                                                 |                                                 |
Gtr.2E|-------------------------------------------------|-------------------------------------------------|
     H|-------------------------------------------------|-------------------------------------------------|
     G|-------------------------------------------------|-------------------------------------------------|
     D|-------------------------------------------------|-------------------------5--------7--------5-----|
     A|-------------------------------------------------|-------------------------3--------5--------3-----|
     E|-3-h5--5--5-----5--5-----3-h5--5--5-----5--5-----|-3-h5--5--5-----5--5-----------------------------|
 
Gtr.1E|-------------------------------------------------|---------------------------------------------5h7-|
     H|-------------------------------------------------|-------------------------------------------------|
     G|-------------------------------------------5-p0--|-7bend9------7bend9------7bend9release7----------|
     D|-------------------------------5--5--7--7--------|-------------------------------------------------|
     A|-------------3--3--5-p0--7--7--------------------|-------------------------------------------------|
     E|-3--3--5--5--------------------------------------|-------------------------------------------------|
      |                                                 |                                                 |
Gtr.2E|-------------------------------------------------|-------------------------------------------------|
     H|-------------------------------------------------|-------------------------------------------------|
     G|-------------------------------------------------|-------------------------------------------------|
     D|-------------------------------------------------|-------------------------5--------7--------5-----|
     A|-------------------------------------------------|-------------------------3--------5--------3-----|
     E|-3-h5--5--5-----5--5-----3-h5--5--5-----5--5-----|-3-h5--5--5-----5--5-----------------------------|
 
Gtr.1E|8p7p5-8p7p5-8p7p5-8p7p5---------------------------------|--------------------------------------------|
     H|------------------------7h8p7p5-7h8p7p5-7h8p7p5-7h8p7p5-|--------------------------------------------|
     G|--------------------------------------------------------|-8p7p5-8p7p5-8p7p5-8p7p5--------------------|
     D|--------------------------------------------------------|-------------------------5------------------|
     A|--------------------------------------------------------|--------------------------------------------|
     E|--------------------------------------------------------|--------------------------------------------|
      |                                                        |                                            |
Gtr.2E|--------------------------------------------------------|--------------------------------------------|
     H|--------------------------------------------------------|--------------------------------------------|
     G|--------------------------------------------------------|--------------------------------------------|
     D|--------------------------------------------------------|-------------------------5--------7--------5|
     A|--------------------------------------------------------|-------------------------3--------5--------3|
     E|3-h5--5--5-----5--5-----3-h5--5--5-----5--5-------------|-3-h5--5--5-----5--5------------------------|
 
Gtr.1E|-12----------15----------12~~~~~~~---------------|-------------------------------------------------|
     H|-------------------------------------------15-16-|-17-16-15----15----------------------------------|
     G|-------------------------------------14/17-------|----------17----17-16-14-------------------------|
     D|-------------------------------------------------|-------------------------17----------------------|
     A|-------------------------------------------------|-------------------------------------------------|
     E|-------------------------------------------------|-------------------------------------------------|
      |                                                 |                                                 |
Gtr.2E|-------------------------------------------------|-------------------------------------------------|
     H|-------------------------------------------------|-------------------------------------------------|
     G|-------------------------------------------------|-------------------------------------------------|
     D|-------------------------------------------------|-------------------------5--------7--------5-----|
     A|-------------------------------------------------|-------------------------3--------5--------3-----|
     E|-3-h5--5--5-----5--5-----3-h5--5--5-----5--5-----|-3-h5--5--5-----5--5-----------------------------|
 
Gtr.1E|-------------------------------------------------|-------------------------------------------------|
     H|-------------------------------------------------|-------------------------------------------------|
     G|----4-p2-p0--2-p0-----------------2--------------|-7-----0-h7~~~~~~~~~--0-h5-----0-h5-----4-p0-----|
     D|-2--------------------2-h5-p2--2-----------5-----|-------------------------------------------------|
     A|-------------------------------------------------|-------------------------------------------------|
     E|-------------------------------------------------|-------------------------------------------------|
      |                                                 |                                                 |
Gtr.2E|-------------------------------------------------|-------------------------------------------------|
     H|-------------------------------------------------|-------------------------------------------------|
     G|-------------------------------------------------|-------------------------------------------------|
     D|-------------------------5--------7--------5-----|-------------------------5--------7--------5-----|
     A|-5-h7--7--7-----7--7-----7--------7--------7-----|-5-h7--7--7-----7--7-----7--------7--------7-----|
     E|-------------------------------0-----------------|-------------------------------0-----------------|
 
Gtr.1E|-7--7--7--7-<7>-------7-----7--5---0h5-----------|-------------------------12~~~~~~~~~~~--------12-|
     H|---------------------------------8------8--5--8bend10~~~~~~~~~~~~~~--------------------------------|
     G|------------Harm---------R-----------------------|-------------------------------------------------|
     D|-------------------------E-----------------------|-------------------------------------------------|
     A|-------------------------S-----------------------|-------------------------------------------------|
     E|-------------------------T-----------------------|-------------------------------------------------|
      |                                                 |                                                 |
Gtr.2E|-------------------------------------------------|-------------------------------------------------|
     H|-------------------------------------------------|-------------------------------------------------|
     G|-------------------------------------------------|-------------------------------------------------|
     D|-------------------------4--------5--------4-----|-------------------------1--------2--------1-----|
     A|-3-h5--5--5-----5--5-----5-----5--5--------5-----|-0-h2--2--2-----2--2-----2-----2--2--------2-----|
     E|-------------------------------------------------|-------------------------------------------------|
 
Gtr.1E|-15-14-12-12-------------------------------------|-------------------------------------------------|
     H|-------------15-13-13-12------------10-----------|-------------------------------------------------|
     G|-------------------------14-14-12\9----12--9--12-|-9--------9--------------------------------------|
     D|-------------------------------------------------|----12--9---12--9--------------------------------|
     A|-------------------------------------------------|-------------------10~~~~~~~~~~~-----------------|
     E|-------------------------------------------------|-------------------------------------------------|
      |                                                 |                                                 |
Gtr.2E|-------------------------------------------------|-------------------------------------------------|
     H|-------------------------------------------------|-------------------------------------------------|
     G|-------------------------------------------------|-------------------------------------------------|
     D|-------------------------5--------7--------5-----|-------------------------5--------7--------5-----|
     A|-5-h7--7--7-----7--7-----7--------7--------7-----|-5-h7--7--7-----7--7-----7--------7--------7-----|
     E|-------------------------------0-----------------|-------------------------------0-----------------|
 
Gtr.1E|------/12--15p12---------------------------------|-------12/14h15h16h17p14--------17b19~~~~~~~~~~~-|
     H|---------------12--------------------------------|----12-------------------14----------------------|
     G|-----------------12-----14b16-----<14>~~~~~~~~---|-------------------14----------------------------|
     D|-------------------14----------------------------|---------------------16--------------------------|
     A|-------------------------------------------------|-------------------------------------------------|
     E|-------------------------------------------------|-------------------------------------------------|
      |                                                 |                                                 |
Gtr.2E|-------------------------------------------------|-------------------------------------------------|
     H|-------------------------------------------------|-------------------------------------------------|
     G|-------------------------------------------------|-------------------------------------------------|
     D|-------------------------4--------5--------4-----|-------------------------1--------2--------1-----|
     A|-3-h5--5--5-----5--5-----5-----5--5--------5-----|-0-h2--2--2-----2--2-----2-----2--2--------2-----|
     E|-------------------------------------------------|-------------------------------------------------|
(2:43 - 2:59)
PART B:
Gtr.1E|-7--------5-h7-p5--------------------------------|-8--------7-h8-p7--------------------------------|
     H|-------------------8-----7-----------8-----10----|-------------------10----7-----------8-----10----|
     G|-------------------------------------------------|-------------------------------------------------|
     D|-------------------------------------------------|-------------------------------------------------|
     A|-------------------------------------------------|-------------------------------------------------|
     E|-------------------------------------------------|-------------------------------------------------|
      |                                                 |                                                 |
Gtr.2E|-------------------------------------------------|-------------------------------------------------|
     H|-------------------------------------------------|-------------------------------------------------|
     G|-------------------------------------------------|-------------------------------------------------|
     D|-------------------------------------------------|-------------------------------------------------|
     A|-2-----2--2--3-p2-p0--2--2-----2--2--3-p2-p0--2--|-3-----3--3--5-p3-p2--3--3-----3--3--5-p3-p2--3--|
     E|-------------------------------------------------|-------------------------------------------------|
 
Gtr.1E|-8--------7-h8-p7--------------------------------|----------------11h12--11~~~~~~~~~~~~~~~---------|
     H|-------------------10----7-----------8-----10----|-12b13r12----------------------------------------|
     G|-------------------------------------------------|-------------------------------------------------|
     D|-------------------------------------------------|-------------------------------------------------|
     A|-------------------------------------------------|-------------------------------------------------|
     E|-------------------------------------------------|-------------------------------------------------|
      |                                                 |                                                 |
Gtr.2E|-------------------------------------------------|-------------------------------------------------|
     H|-------------------------------------------------|-------------------------------------------------|
     G|-------------------------------------------------|-------------------------------------------------|
     D|-------------------------------------------------|-------------------------------------------------|
     A|-0-----0--0--5-p3-p2--3--0-----0--0--5-p3-p2-p0--|-2-----2--2--3-p2-p0--2--2-----2--2--3-p2-p0--2--|
     E|-------------------------------------------------|-------------------------------------------------|
 
Gtr.1E|-7--------5-h7-p5--------------------------------|-8--------7-h8-p7--------------------------------|
     H|-------------------8-----7-----------8-----10----|-------------------10----7-----------8-----10----|
     G|-------------------------------------------------|-------------------------------------------------|
     D|-------------------------------------------------|-------------------------------------------------|
     A|-------------------------------------------------|-------------------------------------------------|
     E|-------------------------------------------------|-------------------------------------------------|
      |                                                 |                                                 |
Gtr.2E|-------------------------------------------------|-------------------------------------------------|
     H|-------------------------------------------------|-------------------------------------------------|
     G|-------------------------------------------------|-------------------------------------------------|
     D|-------------------------------------------------|-------------------------------------------------|
     A|-2-----2--2--3-p2-p0--2--2-----2--2--3-p2-p0--2--|-3-----3--3--5-p3-p2--3--3-----3--3--5-p3-p2--3--|
     E|-------------------------------------------------|-------------------------------------------------|
 
Gtr.1E|-8--------7-h8-p7--------------------------------|-------------------------------------------------|
     H|-------------------10----7-----------8-----10----|-7-----7--7--7-h8-p7-----------------------------|
     G|-------------------------------------------------|----------------------9--8~~~~~~~~~~~~~----------|
     D|-------------------------------------------------|-------------------------------------------------|
     A|-------------------------------------------------|-------------------------------------------------|
     E|-------------------------------------------------|-------------------------------------------------|
      |                                                 |                                                 |
Gtr.2E|-------------------------------------------------|-------------------------------------------------|
     H|-------------------------------------------------|-------------------------------------------------|
     G|-------------------------------------------------|-------------------------------------------------|
     D|-------------------------------------------------|-------------------------------------2--2--2-----|
     A|-0-----0--0--5-p3-p2--3--0-----0--0--5-p3-p2-p0--|-2-----2--2--3-p2-p0--2--2--------------------5--|
     E|-------------------------------------------------|-------------------------------------------------|

(2:59 - 3:14) VERSE 3

(3:15 - 3:30) BRIDGE

(3:30 - 4:00) CHORUS (2 times)

(4:01 - 4:13)

RIFF 2´:

Gtr.E|------- 11/8 measure ------------------------|
    H|---------------------------------------------|
    G|---------------------------------------------|
    D|---0h2-2-2p0---0h2-2-2p0---0h2-2-2---0---3---|
    A|---0h2-2-2p0---0h2-2-2p0---0h2-2-2---0---3---|
    E|-0-----------0-----------0-------------------|


Gtr.E|------- 11/8 measure ------------------------|
    H|---------------------------------------------|
    G|---------------------------------------------|
    D|---0h2-2-2p0---0h2-2-2p0---0h2-2-2---0-------|
    A|---0h2-2-2p0---0h2-2-2p0---0h2-2-2---0---3---|
    E|-0-----------0-----------0---------------3---|


Gtr.E|------- 11/8 measure ------------------------|
    H|---------------------------------------------|
    G|---------------------------------------------|
    D|---0h2-2-2p0---0h2-2-2p0---0h2-2-2---0---3---|
    A|---0h2-2-2p0---0h2-2-2p0---0h2-2-2---0---3---|
    E|-0-----------0-----------0-------------------|


Gtr.E|------- 11/8 measure ------------------------|
    H|---------------------------------------------|
    G|---------------------------------------------|
    D|---0h2-2-2p0---0h2-2-2p0---0h2-2-2---0---2---|
    A|---0h2-2-2p0---0h2-2-2p0---0h2-2-2---0---2---|
    E|-0-----------0-----------0-------------------|
Comments