Aretha Franklin - Rescue Me Chords & Tabs

 

Rescue Me Chords & Tabs

Aretha Franklin Chords & Tabs

Version: 1 Type: Bass Tab 0 ratings
1 star 2 stars 3 stars 4 stars 5 stars
comments

Rescue Me Bass Tab

Title: Rescue me
Artist: Aretha Franklin


Intro

G |-2-------2-------2---2---2-------2----2-----2-------2---2---2-------2-2-----2-|
D |---4-2-4-----4-2-------4---4-2-4--------4-2-----4-2-------4---4-2-4-----4-2---|
A |------------------------------------------------------------------------------|
E |------------------------------------------------------------------------------|


G |-----2---2---2--------------------|
D |-4-2-------4---4-2---0------------|
A |-----------------------4--2--0----|
E |--------------------------------0-|



Main part. Play 3 times.
G |-2-----2-------------------0-----0-0---------------------2-2-----2-|
D |---4-2---4-2-0-0-----0-------2-0-----2-0-2-2---0-2-2---0-----4-2---|
A |-----------------2-0---2-0-------------------2-------2-------------|
E |-------------------------------------------------------------------|


G |---------------------0-0-----0-----------------------2-2-----2-------------2-------2-2-2-----2-|
D |-4-2-0-0-----0-0---------2-0-----2-0-2-2---0-2-2---2-----4-2-----4-2-0-0-4---0-0-4-------4-2---|
A |---------2-0-----2-0---------------------2-------2---------------------------------------------|
E |-----------------------------------------------------------------------------------------------|

[ Tab from: http://www.guitartabs.cc/tabs/a/aretha_franklin/rescue_me_btab.html ]
G |-----------2-------2-2-2-----2-------------2-------2--------------------|
D |-4-2-0-0-4---0-0-4-------4-2-----------------0-0-4----0-----------------|
A |---------------------------------4-2-0-0-4----------------4---2---0-----|
E |----------------------------------------------------------------------0-|




Then this once.
G |-2-------2-------------2-------2-2-2-----2-------------2-------2-2-2-----2-|
D |-----4-2-----4-2-0-0-4---0-0-4-------4-2-----4-2-0-0-4---0-0-4-------4-2---|
A |---------------------------------------------------------------------------|
E |---------------------------------------------------------------------------|


G |-----------2-------2-------------------------------|
D |-4-2-0-0-4---0-0-4---0-----------------------------|
A |-------------------------4---2---0-----------------|
E |-------------------------------------0--0--0--0--0-|



And then the finish. Play twice.
G |-2---2-----2-------------2-------2-2-2-----2-----------2-------2-2-2-----2-|
D |-------4-2-----4-2-0-0-4---0-0-4-------4-2---4-2-0-0-4---0-0-4-------4-2---|
A |---------------------------------------------------------------------------|
E |---------------------------------------------------------------------------|


G |-----------2-------2-------------------------------|
D |-4-2-0-0-4---0-0-4---0-----------------------------|
A |-------------------------4---2---0-----------------|
E |-------------------------------------0--0--0--0--0-|


-------------------------------------------------------
Tabbed by Joakim Nordin.
Not sure how correct this is, but sounds ok to me.
I'm sure I've made misstakes though, as I'm not that
great at figuring stuff out.
For corrections or just want to say something, mail to:
fjodor@mindless.com
-------------------------------------------------------
Comments