Area 7 - Dawning Of A New Era Chords & Tabs

 

Dawning Of A New Era Chords & Tabs

Area 7 Chords & Tabs

Version: 2 Type: Tab 0 ratings
1 star 2 stars 3 stars 4 stars 5 stars
comments

Dawning Of A New Era Tab

Artist: Area 7
Title: (Dawning Of A) New Era
Album: It's a non-album track

Standard Tuning

Intro:-

E|-----------------------------------|
B|---7-9-9---7-9-9---7-9-9---4-4-4---|
G|-----------------------------------|
D|-----------------------------------| x 3
A|-----------------------------------|
E|-----------------------------------|

E|-----------------------------|
B|---7-9-9---7-9-9---7-7-7-7---|
G|-----------------------------|
D|-----------------------------|
A|-----------------------------|
E|-----------------------------|

Chorus

E|-------------------------------------------|
B|-------------------------------------------|
G|---7-7-7-7-7-7-7-7-7---4-4-4-4-4-4-4-4-4---|
D|-------------------------------------------| x 2
A|-------------------------------------------|
E|-------------------------------------------|

Verse
[ Tab from: http://www.guitartabs.cc/tabs/a/area_7/dawning_of_a_new_era_tab_ver_2.html ]
E|-------------------------------------------------|
B|-------------------------------------------------|
G|---12-12-12-12---9-9-9-9---12-12-12-12---2-2-2---|
D|-------------------------------------------------|
A|-------------------------------------------------|
E|-------------------------------------------------|

Chorus

Verse

Chorus

Verse

Interlude:-

E|-----------------------------------------|
B|-----------------------------------------|
G|-----------------------------------------|
D|-----------------------------------------| x 2
A|---10-10-10---10-10-10---7-7-7---7-7-7---|
E|-----------------------------------------|

Chorus

Verse

Chorus

Verse

Chorus

Verse

Chorus

Outro:-

E|-----------------------------------|
B|---7-9-9---7-9-9---7-9-9---4-4-4---|
G|-----------------------------------|
D|-----------------------------------| x 3
A|-----------------------------------|
E|-----------------------------------|

E|-----------------------------|
B|---7-9-9---7-9-9---9-9-9-9---|
G|-----------------------------|
D|-----------------------------|
A|-----------------------------|
E|-----------------------------|

That's all of it.
See ya!
Comments