Area 7 - Careless Memories Chords & Tabs

 

Careless Memories Chords & Tabs

Area 7 Chords & Tabs

Version: 1 Type: Tab 0 ratings
1 star 2 stars 3 stars 4 stars 5 stars
comments

Careless Memories Tab

Artist: Area 7
Title: Careless Memories
Album: It's a Duran Duran cover

Standard Tuning

Intro:-

E|-----------------------------|
B|-----------------------------|
G|---9-9-9-9-9-9-10-10---------|
D|---11-11-11-11-11-11-12-12---| x 3
A|-----------------------------|
E|-----------------------------|

E|-----------------------------|
B|-----------------------------|
G|---9-9-9-9-9-9-10-10---------|
D|---11-11-11-11-11-11-12-12---|
A|-----------------------------|
E|-----------------------------|


Verse:-

E|-----------------------------|
B|-----------------------------|
G|---9-9-9-9-9-9-10-10---------|
D|---11-11-11-11-11-11-12-12---| x 6
A|-----------------------------|
E|-----------------------------|

Chorus:- x 2
[ Tab from: http://www.guitartabs.cc/tabs/a/area_7/careless_memories_tab.html ]
E|-------------------------------------------------------------------|
B|-------------------------------------------------------------------|
G|---5---5---7---9-9-9-9-9-9-10-10---9-9-9-9-9-9-10-10---------------|
D|---------------11-11-11-11-11-11-12-12---11-11-11-11-11-11-12-12---|
A|-------------------------------------------------------------------|
E|-------------------------------------------------------------------|

After Chorus:-

E|-----------------------------|
B|-----------------------------|
G|---9-9-9-9-9-9-10-10---------|
D|---11-11-11-11-11-11-12-12---| x 2
A|-----------------------------|
E|-----------------------------|


Verse 2:-

E|-----------------------------|
B|-----------------------------|
G|---9-9-9-9-9-9-10-10---------|
D|---11-11-11-11-11-11-12-12---| x 10
A|-----------------------------|
E|-----------------------------|

Chorus x 2

Saxophone Solo:-

E|-----------------------------|
B|-----------------------------|
G|---9-9-9-9-9-9-10-10---------|
D|---11-11-11-11-11-11-12-12---| x 8
A|-----------------------------|
E|-----------------------------|

Chorus x 1

Solo:- I don't know the solo.

Verse 3:-

E|-----------------------------|
B|-----------------------------|
G|---9-9-9-9-9-9-10-10---------|
D|---11-11-11-11-11-11-12-12---| x 2
A|-----------------------------|
E|-----------------------------|

Chorus x 2

After Chorus


That's all of it.
See ya!
Comments