Area 51 - Fishcomb Chords & Tabs

 

Fishcomb Chords & Tabs

Area 51 Chords & Tabs

Version: 1 Type: Bass Tab 0 ratings
1 star 2 stars 3 stars 4 stars 5 stars
comments

Fishcomb Bass Tab

This is the short pop song Fishcomb by the infamous AREA 51!  I am an
avid fan and I am certain that this is the correct bassline.
Submitted by Pepper5414@aol.com


The bassline is accented by a mild driver and flanger.
VERSE:
G-----------------------------------------------------------------------------
-
D----------------------------------------------------------0------------------
A----------------3--3--2--2--2--3--2-----------------3--3-----3--2--3-
E-0--0--3--3--0-----------------------0--0--3--3--0---------------------

CHORUS:
G-------------------------------------------------------------------------
D-------7--5--3-----------3--0-----2---------------------------------
A-5--5-----------3--3--3--------3------------------------------------
E-------------------------------------------------------------------------
[ Tab from: http://www.guitartabs.cc/tabs/a/area_51/fishcomb_btab.html ]
INTERLUDE:
G----------------------------------------------------------------------
D----------2--3--2---------------------------------------------------
A-3--2--2------------------------------------------------------------
E----------------------------------------------------------------------

JAZZ FINISH:
This jazz like ending plays the entire song over the same way only much
more articulately and is played a string higher (starting on the A
string).  The only different part is the triple triplet which is tabbed
below.
G-----------------------------------------------------------------------------
--------------
D-5--7--5--3--5--3--2--3--2---------------------------------------------------
--------
A----------------------------0------------------------------------------------
--------------
E-----------------------------------------------------------------------------
---------------


That's the entire song from AREA 51 low key/genocide records 1998!
Submitted by Pepper5414@aol.com

Comments