Arctic Monkeys - When The Sun Goes Down Chords & Tabs

 

When The Sun Goes Down Chords & Tabs

Arctic Monkeys Chords & Tabs

Version: 1 Type: Tab 3 ratings
1 star 2 stars 3 stars 4 stars 5 stars
comments

When The Sun Goes Down Tab

 ARCTIC MONKEYS
  WHEN THE SUN GOES DOWN

  TABBED BY SHANE KENNEDY; DONEGAL, IRELAND.


 
  INTRO (clean channel)

                                            
  E--------------------------------------------------------------
  B---4-----7-----4-----7-----4-----7-----5--X-X--11--9--7--5--7-
  G---4-----8-----4-----8-----4-----8-----6--X-X--11--9--8--6--8-
  D---4-----8-----4-----8-----4-----8-----6--X-X--11--9--8--6--8-
  A---2-----6-----2-----6-----2-----6-----4--X-X--9---7--6--4--6-
  E--------------------------------------------------------------
    
     
  E--------------------------------------------------------------
  B---4-----7-----4-----7-----4-----7-----5--X-X--11--9--7--5--7-
  G---4-----8-----4-----8-----4-----8-----6--X-X--11--9--8--6--8-
  D---4-----8-----4-----8-----4-----8-----6--X-X--11--9--8--6--8-
  A---2-----6-----2-----6-----2-----6-----4--X-X--9---7--6--4--6-
  E--------------------------------------------------------------
     

  E--------------------------------------------------------------
  B---12----7-----12-----7----12---5-/-7-/-9-/-11-11-------------
  G---13----8-----13-----8----13---6-/-8-/-9-/-11-11-------------
  D---13----8-----13-----8----13---6-/-8-/-9-/-11-11-------------
  A---11----6-----11-----6----11---4-/-6-/-7-/-9--9--------------
  E--------------------------------------------------------------
      

  FILL (Distortion)

  E-------------------------------------
  B------4------------------------------
  G------4------------------4--3--4-----    X5
  D------4------------------5--4--5-----  
  A------2------------------5--4--5-----          
  E-------------------------3--2--3-----       

[ Tab from: http://www.guitartabs.cc/tabs/a/arctic_monkeys/when_the_sun_goes_down_tab.html ]
  RIFF (Lead & Bass) 

  E----------------------------------
  B----------------------------------
  G----------------------------------    
  D-----------------------2--4-------
  A---------------2-2--5-------------
  E--3-3---2-2-2---------------------


  VERSE (Bass playing the riff) 

  E---------------------------------------------
  B-----------------------X-X-3---X-X-3-3-------
  G---X-X-4---X-X-3-------X-X-4---X-X-4-4-------
  D---X-X-5---X-X-4-------X-X-4---X-X-4-4-------
  A---X-X-5---X-X-4-------X-X-2---X-X-2-2-------
  E---X-X-3---X-X-2-----------------------------
  

  CHORUS

  E-------------------------------      -------------------
  B---8---10--------X-X-X--3-3----      -------------------
  G---9---11--------X-X-X--4-4----  X4  -------------------
  D---9---11--------X-X-X--4-4----      -----7---4---------
  A---7---9---------X-X-X--2-2----      -----7---4---------
  E-------------------------------      -----5---2---------

  OUTRO       (Switch back to clean)

  E------------------------------------------------------------
  B-----------4----7----4----7----4----7----5---5-/-7-/-9-/-11-
  G-----------4----8----4----8----4----8----6---6-/-8-/-9-/-11-
  D---7-4-----4----8----4----8----4----8----6---6-/-8-/-9-/-11-
  A---7-4-----2----6----2----6----2----6----4---4-/-6-/-7-/-9--
  E---5-2------------------------------------------------------


  E---11-11-11-11-11----9-----7--------
  B---11-11-11-11-11----9-----7--------
  G---11-11-11-11-11----9-----8--------
  D---------------------------9--------
  A---------------------------9--------
  E---------------------------7--------


    WELL THAT’S IT - C’MON THE BOYS IN GREEN
Comments