Arctic Monkeys - When The Sun Goes Down Chords & Tabs

 

When The Sun Goes Down Chords & Tabs

Arctic Monkeys Chords & Tabs

Version: 1 Type: Bass Tab

When The Sun Goes Down Bass Tab

   
-------------------------------------------------------------------------------
			     When The Sun Goes Down - Arctic Monkeys
-------------------------------------------------------------------------------

Tabbed By : vampires
e-mail: theblochead@hotmail.co.uk

Tuning: standard EADG

Intro (bass comes in at 0:31)
G|--------|--------|--------|--------|----|----|-------------|
D|-6----6-|--------|-6----6-|--------|--6-|----|-------------|
A|--------|-6----6-|--------|-6----6-|----|--6-|4---6---7---9|
E|--------|--------|--------|--------|----|----|-------------|

Intro
G|---------|
D|---------|
A|-------2-|
E|-3--2----|X4

G|-----------|------------|
D|-----------|---------2-4|
A|-----------|-2-2--5-----|
E|-3--3-2-2-2|------------| X3

G|-----------|------------|
D|-----------|------2--4--|
A|-----------|-2-2------5-|
E|-3--3-2-2-2|------------|X1

Verse
"Although you're trying not to listen..."
G|-----------|------------|
D|-----------|---------2-4|
A|-----------|-2-2--5-----|
E|-3--3-2-2-2|------------| X3
[ Tab from: http://www.guitartabs.cc/tabs/a/arctic_monkeys/when_the_sun_goes_down_btab.html ]
G|-----------|------------|
D|-----------|------2--4--|
A|-----------|-2-2------5-|
E|-3--3-2-2-2|------------|X1

Chorus
"They say it changes when the sun goes down..."
G|------------|----------|
D|------------|----------|
A|-7--7---9--9|----------|
E|------------|7-7-7--5-7|X4

Link
"Around..."
G|-----|------|
D|-----|------|
A|-----|------|
E|-5---|---2--|

Verse
"Look here comes a ford mondeo..."
G|-----------|------------|
D|-----------|---------2-4|
A|-----------|-2-2--5-----|
E|-3--3-2-2-2|------------| X3

G|-----------|------------|
D|-----------|------2--4--|
A|-----------|-2-2------5-|
E|-3--3-2-2-2|------------|X1


Chorus
"They say it changes when the sun goes down..."
G|------------|----------|
D|------------|----------|
A|-7--7---9--9|----------|
E|------------|7-7-7--5-7|X8

Ending
"Around here..."
G|-----|------|-------|
D|-----|------|-------|
A|-----|------|-------|
E|-5---|---2--|---7\--|

thanks. rate

| /  slide up
| \  slide down
| h  hammer-on
| p  pull-off
| ~  vibrato
| +  harmonic
| x  Mute note
===============================================================================