Arctic Monkeys - View From The Afternoon Chords & Tabs

 

View From The Afternoon Chords & Tabs

Arctic Monkeys Chords & Tabs

Version: 2 Type: Tab

View From The Afternoon Tab

Arctic Monkeys
View From Afternoon
Tabbed by Ryan.c (chhang7@hotmail.com)

There’s another good tab on this site but there where a couple mistakes
this is just the corrections. Use the other tab to get everything else.



e|-----------------------------|
B|-----------------------------|
G|-----------10-----9--------9-|
D|--7-5--10--10--7--9--9--8--9-| that a couple of times
A|--7-5--10--8---7--7--9--9--7-|
E|--5-3--8-------5-----7--7----|

[ Tab from: http://www.guitartabs.cc/tabs/a/arctic_monkeys/view_from_the_afternoon_tab_ver_2.html ]
e|-----------------------------|
B|-----------------------------|
G|-----------10-----9--------9-|
D|--7-5--10--10--7--9--10-12-9-|
A|--7-5--10--8---7--7--10-12-7-|
E|--5-3--8-------5-----8--10---|


e|-----------------------------|
B|-----------------------------|
G|-----------10-----9--7--5----|
D|--7-5--10--10--7--9--7--5----|
A|--7-5--10--8---7--7—-5--3----|
E|--5-3--8-------5-------------|


e|----------------------------|
B|----------------------------|
G|-----------10-----9-----9---|
D|--7-5--10--10--7--9--9--9---|
A|--7-5--10--8---7--7--9--7---|
E|--5-3--8-------5-----7------|