Arctic Monkeys - View From The Afternoon Chords & Tabs

 

View From The Afternoon Chords & Tabs

Arctic Monkeys Chords & Tabs

Version: 4 Type: Bass Tab

View From The Afternoon Bass Tab

   
Tabbed By: James Burrington

( The View from the Afternoon )

Tuning:EADG

  (00:01)
G|----------------------------------|
D|----------------------------------|  X2
A|------------------------6-6-66666-|
E|-5555555555555555555555-----------|

G|--------------------|
D|-----7-7-5-5/-10-10-|  X3
A|-0-0----------------|
E|--------------------|

G|-----------|
D|-----------|  
A|-6-6-66666-|
E|-----------|

G|--------------------|
D|-----7-7-5-5/-10-10-|  
A|-0-0----------------|
E|--------------------|

    REST
  
  (00:33)
G|-------------|
D|-------------|
A|----77-55-33-|
E|-55----------|

G|---------------------|
D|---------3---22----2-|  X2
A|------33---0----22---|
E|-5-33----------------|

G|----------------------|
D|---------3---22-----2-|  
A|------33---0----3-5---|
E|-5-33-----------------|

G|----------------------|
D|---------3---22-------|  
A|------33---0----55-33-|
E|-5-33-----------------|

G|---------------|
D|---------------|  X2
A|---------------|
E|-5-55-3-33-0-0-|


G|-----------------|
D|-----------------|  (12's not 1, 2's)
A|-----------------|
E|-5-55-3-33/12-12-|


G|-------------------|
D|-------------------|  
A|---------------5-3-|
E|-5-55-3-33-0-0-----|

   REST

  (01:12)
G|-------------------|
D|-------------------|  (12's not 1, 2's)
A|-/1212121212121212-|
E|-------------------|

G|---------------------|
D|---------3---22----2-|  X2
A|------33---0----22---|
E|-5-33----------------|

G|----------------------|
D|---------3---22-----2-|  
A|------33---0----3-5---|
E|-5-33-----------------|

G|-----------------------|
D|---------3---22--------|  
A|------33---0----55-33--|
E|-5-33-----------------5|

  QUICK PAUSE

  (01:29)
G|-----------------------------------|
D|-----------------------------------|
A|-8888888888888887-5555555555555555-|
E|-----------------------------------|

G|--------------------------------------------|
D|--------------------------------------------|   (17's not 1, 7's)
A|-8888888888888887-55555555/1717171717171717-|
E|--------------------------------------------|
[ Tab from: http://www.guitartabs.cc/tabs/a/arctic_monkeys/view_from_the_afternoon_btab_ver_4.html ]
G|---------------------------------|
D|---------------------------------|
A|-8-8-8-8-8-8-8-8-5-5-5-5-5-5-5-5-|
E|---------------------------------|

G|---------------------------|
D|---------------------------|
A|-8-8-8-8-8-8-8-8-555555555-|
E|---------------------------|

G|---------------|
D|---------------|  X2
A|---------------|
E|-5-55-3-33-0-0-|

G|------------------|
D|------------------|  (12's not 1, 2's)
A|------------------|
E|-5-55-3-33/12-12\-|

G|--------------------|
D|--------------------|  
A|---------------5-3~-|
E|-5-55-3-33-0-0------|

         REST
  
  (02:29)
G|-------------------|
D|-------------------|  (12's not 1, 2's)
A|-121212------------|
E|-------------------|

G|---------------------|
D|---------3---22----2-|  X2
A|------33---0----22---|
E|-5-33----------------|

G|----------------------|
D|---------3---22-----2-|  
A|------33---0----3-5---|
E|-5-33-----------------|

G|-----------------------|
D|---------3---22--------|  
A|------33---0----55-33--|
E|-5-33-----------------5|

     QUICK PAUSE

G|-----------------------------------|
D|-----------------------------------|
A|-8888888888888887-5555555555555555-|
E|-----------------------------------|

G|--------------------------------------------|
D|--------------------------------------------|   (17's not 1, 7's)
A|-8888888888888887-55555555/1717171717171717-|
E|--------------------------------------------|

G|-----------------------------|
D|-----------------------------|
A|-8-8-8-8-8-8-8-8-5-5-5-5-5-5-|
E|-----------------------------|

G|--------------------------------------------|
D|--------------------------------------------|   (17's not 1, 7's)
A|-8888888888888887-55555555/1717171717171717-|
E|--------------------------------------------|
  
  (03:12)
G|----------------------------------|
D|----------------------------------|  
A|------------------------6-6-66666-|
E|-5555555555555555555555-----------|

G|--------------------|
D|-----7-7-5-5/-10-10-|  
A|-0-0----------------|
E|--------------------|

G|-----------|
D|-----------|  
A|-6-6-66666-|
E|-----------|

G|-------------------------|
D|-----7-7-5-5/-10-10------|  
A|-0-0------------------0~-|
E|--------------------4----|