Arctic Monkeys - View From The Afternoon Chords & Tabs

 

View From The Afternoon Chords & Tabs

Arctic Monkeys Chords & Tabs

Version: 1 Type: Bass Tab

View From The Afternoon Bass Tab

   
-------------------------------------------------------------------------------
	       THE VIEW FROM THE AFTERNOON - Arctic Monkeys
-------------------------------------------------------------------------------

Tabbed By : Jordan Rooney
e-mail: rooneyj10@hotmail.com / rooneyj@gmail.com

Sorry, I haven't tabbed the chorus yet. Will add in the near future.


Intro (0:14)
G|---------------------5---------------------------------------------||
D|------7-7-7-7--5--7------------------------------------------------|| (x3)
A|-------------------------------------------------------------------||
E|-------------------------------------------------------------------||

G|---------------------5---------------------------------------------||
D|------7-7-7-7--5--7------------------------------------------------||
A|-------------------------------------------------------------------||
E|-------------------------------------------------------------------||

Verse (0:33)
G|-------------------------------------------------------------------||
D|-------------------------------------------------------------------|| 
A|--------------3-3--7-7---------------------------------------------||
E|----5-5--3-3-------------------------------------------------------||

G|-------------------------------------------------------------------||
D|-------------------------------------------------------------------|| (x3)
A|--------------3-3--7-7-------7-7--2-2--7-7-------------------------||
E|----5-5--3-3------------5-5----------------------------------------||

Break (0:48)
G|-------------------------------------------------------------------||
D|-------------------------------------------------------------------|| 
A|------------------------12--10-------------------------------------||
E|-----5-5/--3-3-0-0--------------12---------------------------------||

G|-------------------------------------------------------------------||
D|-------------------------------------------------------------------|| 
A|------------------------12-12-10h12-15-----------------------------||
E|-----5-5/--3-3-0-0-------------------------------------------------||

G|-------------------------------------------------------------------||
D|-------------------------------------------------------------------||
A|-----------------------------14--10--------------------------------||
E|-----5-5/--3-3--0-0------------------12----------------------------||


G|-------------------------------------------------------------------||
D|-------------------------------------------------------------------||
A|-----------------------------5--3----------------------------------||
E|-----5-5/--3-3--0-0------------------------------------------------||

Verse (1:12)
G|-------------------------------------------------------------------||
D|-------------------------------------------------------------------|| 
A|--------------3-3--7-7---------------------------------------------||
E|----5-5--3-3-------------------------------------------------------||
[ Tab from: http://www.guitartabs.cc/tabs/a/arctic_monkeys/view_from_the_afternoon_btab.html ]
G|-------------------------------------------------------------------||
D|-------------------------------------------------------------------|| (x3)
A|--------------3-3--7-7-------7-7--2-2--7-7-------------------------||
E|----5-5--3-3------------5-5----------------------------------------||

Chorus (1:29)

G|-------------------------------------------------------------------||
D|-------------------------------------------------------------------|| 
A|-------------------------------------------------------------------||
E|-------------------------------------------------------------------||

Break (1:56)
G|-------------------------------------------------------------------||
D|-------------------------------------------------------------------|| 
A|------------------------12--10-------------------------------------||
E|-----5-5/--3-3-0-0--------------12---------------------------------||

G|-------------------------------------------------------------------||
D|-------------------------------------------------------------------|| 
A|------------------------12-12-10h12-15-----------------------------||
E|-----5-5/--3-3-0-0-------------------------------------------------||

G|-------------------------------------------------------------------||
D|-------------------------------------------------------------------||
A|-----------------------------14--10--------------------------------||
E|-----5-5/--3-3--0-0------------------12----------------------------||


G|-------------------------------------------------------------------||
D|-------------------------------------------------------------------||
A|-----------------------------5--3----------------------------------||
E|-----5-5/--3-3--0-0------------------------------------------------||

Verse (2:30)
G|-------------------------------------------------------------------||
D|-------------------------------------------------------------------|| 
A|--------------3-3--7-7---------------------------------------------||
E|----5-5--3-3-------------------------------------------------------||

G|-------------------------------------------------------------------||
D|-------------------------------------------------------------------|| (x3)
A|--------------3-3--7-7-------7-7--2-2--7-7-------------------------||
E|----5-5--3-3------------5-5----------------------------------------||

Chorus (2:46)

G|-------------------------------------------------------------------||
D|-------------------------------------------------------------------|| 
A|-------------------------------------------------------------------||
E|-------------------------------------------------------------------||

Outro (3:19)
G|---------------------5---------------------------------------------||
D|------7-7-7-7--5--7------------------------------------------------|| (x3)
A|-------------------------------------------------------------------||
E|-------------------------------------------------------------------||

G|---------------------5---------------------------------------------||
D|------7-7-7-7--5--7------------------------------------------------||
A|-------------------------------------------------------------------||
E|-------------------------------------------------------------------||


| /  slide up
| \  slide down
| h  hammer-on
| p  pull-off
| ~  vibrato
| +  harmonic
| x  Mute note
===============================================================================