Arctic Monkeys - Space Invaders Chords & Tabs

 

Space Invaders Chords & Tabs

Arctic Monkeys Chords & Tabs

Version: 1 Type: Bass Tab

Space Invaders Bass Tab

There's no bass till the chorus so....

Chorus

G|--------------------|
D|------33-3----------|
A|-5-55------5-55-33-3|
E|--------------------|  x3

G|-----------5--------|
D|---3-5-6-7--7-6-5-3-|
A|-5------------------|
E|--------------------|

Solo
[ Tab from: http://www.guitartabs.cc/tabs/a/arctic_monkeys/space_invaders_btab.html ]
G|---------------------------|
D|----------345--------------|
A|-5-5-3-5-5----5-5-3-3------|
E|----------------------3/4\3|  x4

G|-------------------------------------------------|
D|-------------------------------------------------|
A|-5-5-------5-5-------5-5--------5-5-5-5-5-5-55555|
E|-------------------------------------------------|  into chorus

by dave t