Arctic Monkeys - Settle For A Draw Chords & Tabs

 

Settle For A Draw Chords & Tabs

Arctic Monkeys Chords & Tabs

Version: 1 Type: Tab 0 ratings
1 star 2 stars 3 stars 4 stars 5 stars
comments

Settle For A Draw Tab

Arctic Monkeys

Settle for a draw (Intro)

[ Tab from: http://www.guitartabs.cc/tabs/a/arctic_monkeys/settle_for_a_draw_tab.html ]
E|------------------------------------------------------------|
B|-----------------------9-9----------------------------------|
G|-8-8--6-6--8-8--11-11-------11-11--8-8--6-6--8~~--8~~-------|  X2
D|------------------------------------------------------------|
A|------------------------------------------------------------|
E|------------------------------------------------------------|

Third time
E|------------------------------------------------------------|
B|-----------------------9-9----------------------------------|
G|-8-8--6-6--8-8--11-11-------11-11--8-8--6-6~----------------|
D|------------------------------------------------------------|
A|------------------------------------------------------------|
E|------------------------------------------------------------|
Comments