Arctic Monkeys - Riot Van Chords & Tabs

 

Riot Van Chords & Tabs

Arctic Monkeys Chords & Tabs

Version: 1 Type: Tab

Riot Van Tab

Hey this is my first tab and i think its perfect please rate it!!

Riot Van:-

VERSE:-

e|------------9----7-------2-----------------------------9----7-|
B|------------10---9-------3-----------------------------10---9-|
G|------------11---9-------4-----------------------------11---9-|
D|------------11---9-------4-----------------------------11---9-|
A|------------9----7-------2-----------------------------9----7-|
E|--------------------------------------------------------------|

-2------------------------------9----7---------2-------------------------|
-3------------------------------10---9---------3-------------------------|
-4------------------------------11---9---------4-------------------------|
-4------------------------------11---9---------4-------------------------|
-2------------------------------9----7---------2-------------------------|
-X-----------------------------------------------------------------------|

-----9----7---------2-|
-----10---9---------3-|
-----11---9---------4-|
-----11---9---------4-|
-----9----7---------2-|
----------------------|

CHORUS:-

e|-0---0---0---0---0---0---0---0---4---4---4---4---4---4---4---4-|
B|-3---3---3---3---3---3---3---3---5---5---5---5---5---5---5---5-|
G|-3---3---3---3---3---3---3---3---6---6---6---6---6---6---6---6-|
D|-3---3---3---3---3---3---3---3---6---6---6---6---6---6---6---6-|
A|-0---0---0---0---0---0---0---0---4---4---4---4---4---4---4---4-|
E|---------------------------------------------------------------|
[ Tab from: http://www.guitartabs.cc/tabs/a/arctic_monkeys/riot_van_tab.html ]
-2---2---2---2---2---2---2---2---------------------------------|
-3---3---3---3---3---3---3---3---0---0---0---0---0---0---0---0-|
-4---4---4---4---4---4---4---4---1---1---1---1---1---1---1---1-|
-4---4---4---4---4---4---4---4---2---2---2---2---2---2---2---2-|
-2---2---2---2---2---2---2---2---2---2---2---2---2---2---2---2-|
---------------------------------0---0---0---0---0---0---0---0-|

-0---0---0---0---0---0---0---0---4---4---4---4---4---4---4---4-|
-3---3---3---3---3---3---3---3---5---5---5---5---5---5---5---5-|
-3---3---3---3---3---3---3---3---6---6---6---6---6---6---6---6-|
-3---3---3---3---3---3---3---3---6---6---6---6---6---6---6---6-|
-0---0---0---0---0---0---0---0---4---4---4---4---4---4---4---4-|
---------------------------------------------------------------|

-2---2---2---2---2---2---2---2---------------------------------|
-3---3---3---3---3---3---3---3---0---0---0---0---0---0---0---0-|
-4---4---4---4---4---4---4---4---1---1---1---1---1---1---1---1-|
-4---4---4---4---4---4---4---4---2---2---2---2---2---2---2---2-|
-2---2---2---2---2---2---2---2---2---2---2---2---2---2---2---2-|
---------------------------------0---0---0---0---0---0---0---0-|

SOLO:-

e|--------------------------------------------------------------|
B|--------------------------------------------------------------|
G|------------------------------------------------------4/9--/2-|
D|--------------9/4-----4/2--------------------4/11-------------|
A|--0----9/4-----------------------0----9/4---------------------|
E|--------------------------------------------------------------|