Arctic Monkeys - Red Light Indicates Doors Are Secured Chords & Tabs

 

Red Light Indicates Doors Are Secured Chords & Tabs

Arctic Monkeys Chords & Tabs

Version: 2 Type: Bass Tab

Red Light Indicates Doors Are Secured Bass Tab

   
Riff 1:

G|--------------------|
D|-------------3------|     x4
A|------3-5--5--------|
E|3-3-5---------------|

Riff 2:

G|---------------------------------------------|
D|---------------------------------------------|
A|---------------------------------------------|
E|3----3----3----3----0-3----0-3----0-3----0-3-|

Riff 1 x8

Chorus 1:
[ Tab from: http://www.guitartabs.cc/tabs/a/arctic_monkeys/red_light_indicates_doors_are_secured_btab_ver_2.html ]
G|----------------------------|
D|----------------------------|
A|00000000-33333333-5555-77-9-|
E|----------------------------|

Riff 1 x12

Chorus 2:

G|--------------------------------------------------------|
D|--------------------------------------------------------|
A|00000000-33333333-55555555--00000000-33333333-5555-77-9-|
E|--------------------------------------------------------|

Riff 1 x8

Chorus1

Riff 1 x7