Arctic Monkeys - One For The Road Chords & Tabs

 

One For The Road Chords & Tabs

Arctic Monkeys Chords & Tabs

Version: 2 Type: Bass Tab 0 ratings
1 star 2 stars 3 stars 4 stars 5 stars
comments

One For The Road Bass Tab

   
-----------------------------------------------------------------------------
                     One For The Road - Arctic Monkeys
-----------------------------------------------------------------------------

Tabbed by: Country Bass
E-mail: aaron.white8@education.nsw.gov.au

Tuning: Standard

Intro

G|----------------------------|
D|----------------------------|
A|------------3-2-3-2-3-2-----|
E|------------------------5-3-|

Verse

G|-------------------|    |-----------------------|
D|-------------------|    |-----------------------|
A|------0-2--3---2-0-| x3 |------0-2--3---2-0--02-|
E|--0-3--------3-----|    |--0-3--------3---------|

Pre-Chorus

G|----------------------------------------------|
D|----------------------------------------------|
A|------0-2-02-3---2-0--------0-2-02-3---2-0-02-| 
E|--0-3----------3--------0-3----------3--------|
[ Tab from: http://www.guitartabs.cc/tabs/a/arctic_monkeys/one_for_the_road_btab_ver_2.html ]
G|------------------------------------------------------|
D|------------------------------------------------------|
A|------0-2-02-3---2-0-20--------0-2-02-3-2-3-2-3-2-----| 
E|--0-3----------3--------32-0-3--------------------5-3-|

Chorus

G|----------------------------------|
D|----------------------------------|
A|--3-3-3-3-3-3-3-5-7-7-7-7-7-6-5-4-| x4 
E|----------------------------------|

Interlude

Pause for a moment, listen for bass intro

G|----------------------------------------|
D|----------------------------------------|
A|--------5-3-2------------5-3-2----------|
E|--0-2-3-------5-3--0-2-3-------5-3-5-3--|


Playing Order

Intro
Verse x2
Pre-Chorus
Verse
Pre-Chorus
Chorus
Interlude
Chorus x2




Alternative Verse

G|--------------------|
D|--------------------|
A|--------------------|
E|--0-3-5-7--8-3-7-5--|



| /  slide up
| \  slide down
| h  hammer-on
| p  pull-off
| ~  vibrato
| +  harmonic
| x  Mute note
=============================================================================
Comments