Arctic Monkeys - Mardy Bum Chords & Tabs

 

Mardy Bum Chords & Tabs

Arctic Monkeys Chords & Tabs

Version: 3 Type: Tab

Mardy Bum Tab

Arctic Monkeys

Mardy Bum

Lead Guitar Part (Alex Turner)

Have a crack on this. Sounds fairly spot on i reckon. Let me know what you think at
tommyfellows@hotmail.com

The start to the intro is how Alex plays it because ive seen them play a few times.
It's all done by ear after that though,because he's always got his back turned for
the solos. 

Enjoy 

INTRO

e--7777-5-----------------------|
B---------7-5-------------------|
G-------------7/4-2-4-2---------|
D-----------------------4--2----|
A-------------------------------|
E-------------------------------|
 
e------------------------------------------------------------|
B-7--7---7--------------7--7---7-----------------------------|
G------9---9-7---7-9---------9---9-7--7-9-6-7-7-6-4-2/77777-9|
D------------------------------------------------------------|
A------------------------------------------------------------|
E------------------------------------------------------------|
[ Tab from: http://www.guitartabs.cc/tabs/a/arctic_monkeys/mardy_bum_tab_ver_3.html ]
e-------------------------------------------------------------------|
B-7--7---7-------------7-7-7---7------------------------------------|
G------9---9-7--7-9----------9---9-7--7-9-6-7-7-6-4--6/7---77777/9-7|
D-------------------------------------------------------------------|
A-------------------------------------------------------------------|
E-------------------------------------------------------------------|

                                (live alternative)
                                              e---------------------|
                                              B---------------------|
                                              G-6-7-666-7--77777/9-7|
                                              D---------------------|
                                              A---------------------|
                                              E---------------------|

SOLO

e-------------------------------------------------------|
B-------------------------------------------------------|
G-/9-7-6-7-6h7-9-7-6-7-6----------------------2---------|
D------------------------9-11-9-7-9-7-4-4-2h4---4-2-0-0-|
A-------------------------------------------------------|
E-------------------------------------------------------|

e-------------------------------------------------------|
B-------------------------------------------------------|
G--7777-9-6--66-7-9-11-9-7-4-44/7-7--9h11-9-7-9-7-------|
D-------------------------------------------------------|
A-------------------------------------------------------|
E-------------------------------------------------------|