Arctic Monkeys - Mardy Bum Chords & Tabs

 

Mardy Bum Chords & Tabs

Arctic Monkeys Chords & Tabs

Version: 3 Type: Bass Tab

Mardy Bum Bass Tab

   
Intro
G -------------------------------------------------------------------------------------|
D ---------------4--7-4--4--4-4-4-5--4-5--5--5-4-4-4-5--4-2--2--2-2-2------------------|
A --5--5--5-5-5------------------------------------------------------------------------|
E -------------------------------------------------------------------------------5--5--|

G -------------------------------------------------------------------------------------|
D ---------------4--7-4--4--4-4-4-5--4-5--5--5-4-4-4-5--4-2--2--2-2-2------------------|
A --5--5--5-5-5------------------------------------------------------------------------|
E -------------------------------------------------------------------------------5--5--|

G -------------------------------------------------------------------------------------|
D ---------------4--7-4--4--4-4-4-5--4-5--5--5-4-4-4-5--4-2--2--2-2-2------------------|
A --5--5--5-5-5------------------------------------------------------------------------|
E -------------------------------------------------------------------------------5--5--|

Chorus 
G --------------------------------------------------------------------------|
D ----------------------------4-2----------------------------4-2------------|
A --5---5--7---5-5-0--2-2-----5---5--7---5-5-02-2-----5----7---------------|
E --------------------------------------------------------------------------|

G -------------------------------------------------------------------------------------|
D ---------------4--7-4--4--4-4-4-5--4-5--5--5-4-4-4-5--4-2--2--2-2-2------------------|
A --5--5--5-5-5------------------------------------------------------------------------|
E -------------------------------------------------------------------------------5--5--|
[ Tab from: http://www.guitartabs.cc/tabs/a/arctic_monkeys/mardy_bum_btab_ver_3.html ]
G -------------------------------------------------------------------------------------|
D ---------------4--7-4--4--4-4-4-5--4-5--5--5-4-4-4-5--4-2--2--2-2-2------------------|
A --5--5--5-5-5------------------------------------------------------------------------|
E -------------------------------------------------------------------------------5--5--|

Chorus 
G --------------------------------------------------------------------------|
D ----------------------------4-2----------------------------4-2------------|
A --5---5--7---5-5-0--2-2-----5---5--7---5-5-02-2-----5----7---------------|
E --------------------------------------------------------------------------|

Bridge (Sorry I was late...)
G--------------------------------------------------------------------------|
D -------------------------------------------------------------------------|
A --4-4-4-4-4-4-7-4-5-5-5-5-5-5-5-5-4-4-4-4-4-4-7-4-5-5-5-5-5-5-5-5-4-4-4--|
E -------------------------------------------------------------------------|

----------------------------------------------------------------------------|
----------------------------------------------------------------------------|
--4-4-4-7-4-5-5-5-5-5-5-5-5-4-4-4-4-4-4-7-4-5-5-5-5-7-7-7-7-----------------|
----------------------------------------------------------------------------|


G -------------------------------------------------------------------------------------|
D ---------------4--7-4--4--4-4-4-5--4-5--5--5-4-4-4-5--4-2--2--2-2-2------------------|
A --5--5--5-5-5------------------------------------------------------------------------|
E -------------------------------------------------------------------------------5--5--|

G -------------------------------------------------------------------------------------|
D ---------------4--7-4--4--4-4-4-5--4-5--5--5-4-4-4-5--4-2--2--2-2-2------------------|
A --5--5--5-5-5------------------------------------------------------------------------|
E -------------------------------------------------------------------------------5--5--|

Chorus (end on D)
G --------------------------------------------------------------------------|
D ----------------------------4-2----------------------------4-2------------|
A --5---5--7---5-5-0--2-2-----5---5--7---5-5-02-2-----5----7---------------|
E --------------------------------------------------------------------------|