Arctic Monkeys - Knock A Door Run Chords & Tabs

 

Knock A Door Run Chords & Tabs

Arctic Monkeys Chords & Tabs

Version: 1 Type: Tab 0 ratings
1 star 2 stars 3 stars 4 stars 5 stars
comments

Knock A Door Run Tab

   
Verse
e---------------    -----------------|
B---------------    -----------------|
G---------------    -----------------|
D---4-2---------    -----------------|
A-------4-3-2-0- x3 -----------------|
E-2-------------    -0-0-0-0-1-1-1-1-|

Pre Chorus
e-XXXXXXXXXXXXXX
B-XXXXXXXXXXXXXX
G-XXXXXXXXXXXXXX
D-XXXXXXXXXXXXXX
A-XXXXXXXXXXXXXX
e-XXXXXXXXXXXXXX

e-------------------|
B-------------------|
G-------------------|
D-------------------|
A--------0-x4--4-x4-|
E-2-x24-------------|

Chorus
e-------------------|
B-------------------|
G------4-4--2-6-4-2-|
D-4-4--4-4--2-6-4-2-|
A-4-4--2-2--0-4-2-0-| x2
E-2-2---------------|

e---------------------|
B---------------------|
G------4444-2222-6666-|
D-4444-4444-2222-6666-|
A-4444-2222-0000-4444-|
E-2222----------------|
[ Tab from: http://www.guitartabs.cc/tabs/a/arctic_monkeys/knock_a_door_run_tab.html ]
e-------------------------|
B-------------------------|
G------4444--2-2-2--6-6-6-|
D-4444-4444--2-2-2--6-6-6-|
A-4444-2222--0-0-0--4-4-4-|
E-2222--------------------|

Bridge
mess around with
e------------|
B------------|
G------------|
D------------|
A----2--0--4-|
E-2----------|

and then
e------------|
B------------|
G----4--2--6-|
D-4--4--2--6-|
A-4--2--0--4-|
E-2----------|
(gradually getting faster)

Outro
e------------------------------------|
B------------------------------------|
G--------------------------2222-6666-|
D-444444444444444444444444-2222-6666-|
A-444444444444444444444444-0000-4444-| x2
E-222222202222222022222220-----------|

e--------------------------------    e-------|
B--------------------------------    B-------|
G----------------------2222-6666-    G-------|
D-44444--44444--44444--2222-6666-    D-4-----|
A-44444--44444--44444--0000-4444- x2    A-4--|
E-22222--22222--22222------------    E-2-----|

Song Order:
Verse x4
Pre Chorus
Chorus
Verse x4
Pre Chorus
Chorus
Bridge
Outro
Comments