Arctic Monkeys - I Bet You Look Good On The Dancefloor Chords & Tabs

 

I Bet You Look Good On The Dancefloor Chords & Tabs

Arctic Monkeys Chords & Tabs

Version: 2 Type: Tab

I Bet You Look Good On The Dancefloor Tab

This is my attempt to figure out the rest of the first solo. Please rate this tab.

|-----------------------------------------------------------------------------------|
|-----------------------------------------------------------------------------------|
|------------------------9-9--11-11--14-14--16-16--16b-16b-16b-16b-16b-16b-16b-16b--|
|-------------9-9--11-11------------------------------------------------------------|
|--9-9--12-12-----------------------------------------------------------------------|
|-----------------------------------------------------------------------------------|
[ Tab from: http://www.guitartabs.cc/tabs/a/arctic_monkeys/i_bet_you_look_good_on_the_dancefloor_tab_ver_2.html ]
|----------------------------------------------|
|----------------------------------------------|
|16-14----------14-16-14----------14-16b18r16--|
|------16-14-16----------16-14-16--------------|
|----------------------------------------------|
|----------------------------------------------|

|----------------------------------------------------------------------------------------------------------|
|----------------------------------------------------------------------------------------------------------|
|-16-16-16-16-14-----------14-----11-11-11-11-9--------9---------9-----------------------------------------|
|----------------16-14-16-----16----------------11-9-11--11-9-11---11-9----9----11b12r11-9------------9----|
|-----------------------------------------------------------------------12---12------------12----9-12---9--|
|----------------------------------------------------------------------------------------------------------|