Arctic Monkeys - I Bet You Look Good On The Dancefloor Chords & Tabs

 

I Bet You Look Good On The Dancefloor Chords & Tabs

Arctic Monkeys Chords & Tabs

Version: 1 Type: Tab 0 ratings
1 star 2 stars 3 stars 4 stars 5 stars
comments

I Bet You Look Good On The Dancefloor Tab

   
I Bet That You Look Good On The Dancefloor


intro
F#


LEAD
over F# chord
|-------------------------------------------------------------|
|-------------------------------------------------------------|
|----------------9--11--14--16--16b-16b--16b--16b--16b--14----|
|-----7--9--11------------------------------------------------|
|--9----------------------------------------------------------|
|-------------------------------------------------------------|


|------------------------------------------------|
|------------------------------------------------|
|------------14--16b--14--------------14--16b----|
|16--14--16---------------16--14--16-------------|
|------------------------------------------------|
|------------------------------------------------|

Chords change to: C#5 B5 A5 F#m
|----------------------------------------------------------------|
|----------------------------------------------------------------|
|-16-16-16-16-14-----------14-----11-11-11-11-9--------9---------|
|----------------16-14-16-----16----------------11-9-11--11------|
|----------------------------------------------------------------|
|----------------------------------------------------------------|

fast run at the end i cnt work out, uses F# mninor pentaonic scale
the notes.. F# A B C# E in this position i think
|---------------------------------|
|---------------------------------|
|--------------9--11--------------|
|----7--9--11---------------------|
|--9------------------------------|
|---------------------------------|

[ Tab from: http://www.guitartabs.cc/tabs/a/arctic_monkeys/i_bet_you_look_good_on_the_dancefloor_tab.html ]
VERSE
C#5      B5      A5       F#5           C#        B         A F#
stop makin th eyes at me    il stop making the eyes at u...

continue with.. C# B A F#  untill


CHORUS
F#m                             A                                        E
   i bet tht u look good on th dancefloor i dont know if ur looking for romance,
			 F#m
i dnt know wot ur looking for

F#                               A
well i bet tht u look good on th dancefloor dancing to elctro
E                        C#
pop like a robot from 1984..from 1984


lead at end of Chorus..

|-------------------------------------------------------|
|-------------------------------------------------------|
|-------------------------------------------------------|
|--11-----9-9-9-9-9-9--7----------------------7-9-7-9---|
|-----12-----------------9---9-9-9-7-9-9-7-9------------|
|-------------------------------------------------------|

---------------------------------------------------|
---------------------------------------------------|
-----9----9--11-------14----14-16-14-16b-----------|
--11---11----------16----16------------------------|
---------------------------------------------------|
---------------------------------------------------|


VERSE
C#5 B5 A5 F#5

CHORUS
F#m A E F#  F#m A E C#


BRIDGE
A E F#
Comments