Arctic Monkeys - I Bet You Look Good On The Dancefloor Chords & Tabs

 

I Bet You Look Good On The Dancefloor Chords & Tabs

Arctic Monkeys Chords & Tabs

Version: 5 Type: Bass Tab

I Bet You Look Good On The Dancefloor Bass Tab

   
Artist: Arctic Monkeys
Song: I Bet You Look Good On The Dancefloor
Tabbed by: rob

Intro
------
G|--------| x 8
D|--------|
A|--------|
E|--22-0--|

G|---------------------------------|
D|---------------------------------|
A|---------------------------------|
E|--222222222222222222222222222222-|

Verse
-----
G|---------------| x 12
D|---------------|
A|---------------|
E|-9--7-7-3h5--2-|

Chorus
------
G|---------------------------------------------------------|
D|-----2-------2-------2------2------2------2-----2-4------|
A|----4-4-----4-4--0-04-4-0-04-4----4-4----4-4--4-----4-2--|
E|-2-2-----2-2-------------------0-0----0-0----2-----------|


G|--------------------------------------------|
D|-----2-------2-------2------2------2------2-|
A|----4-4-----4-4--0-04-4-0-04-4----4-4----4-4|
E|-2-2-----2-2-------------------0-0----0-0---|


G|-----------|
D|-----------|
A|-----------|
E|-999999999-|



Verse
-----
G|---------------| x 12
D|---------------|
A|---------------|
E|-9--7-7-3h5--2-|

Chorus
------
G|---------------------------------------------------------|
D|-----2-------2-------2------2------2------2-----2-4------|
A|----4-4-----4-4--0-04-4-0-04-4----4-4----4-4--4-----4-2--|
E|-2-2-----2-2-------------------0-0----0-0----2-----------|

[ Tab from: http://www.guitartabs.cc/tabs/a/arctic_monkeys/i_bet_you_look_good_on_the_dancefloor_btab_ver_5.html ]
G|--------------------------------------------|
D|-----2-------2-------2------2------2------2-|
A|----4-4-----4-4--0-04-4-0-04-4----4-4----4-4|
E|-2-2-----2-2-------------------0-0----0-0---|


G|-----------|
D|-----------|
A|-----------|
E|-999999999-|


Interlude
---------
G|----------------------------------------------------|
D|----------------------------------------------------|
A|----------77777777-99999999999999----------77777777-|
E|-55555555-------------------------55555555----------|

G|--------| x 8
D|--------|
A|--------|
E|--22-0--|

G|---------------------------------------------------|
D|---------------------------------------------------|
A|---------------------------------------------------|
E|--222222222222222222222222222222/14-14-14/12/9/7/2-|


Chorus
------
G|---------------------------------------------------------|
D|-----2-------2-------2------2------2------2-----2-4------|
A|----4-4-----4-4--0-04-4-0-04-4----4-4----4-4--4-----4-2--|
E|-2-2-----2-2-------------------0-0----0-0----2-----------|


G|--------------------------------------------|
D|-----2-------2-------2------2------2------2-|
A|----4-4-----4-4--0-04-4-0-04-4----4-4----4-4|
E|-2-2-----2-2-------------------0-0----0-0---|


G|-------------|
D|-------------|
A|-------------|
E|-9-9-9-9-9-2-|


That's it sounds about right to me.