Arctic Monkeys - From The Ritz To The Rubble Chords & Tabs

 

From The Ritz To The Rubble Chords & Tabs

Arctic Monkeys Chords & Tabs

Version: 1 Type: Tab 0 ratings
1 star 2 stars 3 stars 4 stars 5 stars
comments

From The Ritz To The Rubble Tab

   
ARCTIC MONKEYS
-FROM THE RITZ TO THE RUBBLE

Top band, really need tabbing...

VERSE

B  E7  F#m

e----------------------------------------------|
b-12--12\7------7------------------------------|
g-------------9----------------7-------9~------|	x2
d------------------9~------9--------11---------|
a----------------------------------------------|
e----------------------------------------------|

CHORUS

e----------------------------------------------|
b----------------------------------------------|
g----------------------------------------------|	x4
d-3h5-3h5--5h7-5h7--7h9-7h9--9-9-9-9-9-9-9-9---|
a-3h5-3h5--5h7-5h7--7h9-7h9--9-9-9-9-9-9-9-9---|
e----------------------------7-7-7-7-7-7-7-7---|

FILL
Bass arranged for guitar)
e----------------------------------------------|
b----------------------------------------------|
g----------------------------------------------|
d----------------------------------------------|
a---33/5---33/5---55/7---7---7/9---------------|
e-1------1------3------5---5-------------------|

VERSE

B  E7  F#m

e----------------------------------------------|
b-9---9\4--------4-----------------------------|
g-------------6----------------5-------7~------|	x1
d------------------6~------7-------9-----------|
a----------------------------------------------|
e----------------------------------------------|

CHORUS
[ Tab from: http://www.guitartabs.cc/tabs/a/arctic_monkeys/from_the_ritz_to_the_rubble_tab.html ]
e----------------------------------------------|
b----------------------------------------------|
g----------------------------------------------|
d--3h5-3h5--5h7-5h7--7h9-7h9--9-9-9-9-9-9-9-9--|	x4
a--3h5-3h5--5h7-5h7--7h9-7h9--9-9-9-9-9-9-9-9--|
e-----------------------------7-7-7-7-7-7-7-7--|

INTERLUDE/OUTRO

B  E7  F#m

B  E7  F#m

(listen to song for timing etc...)
e----------------------------------------------|
b---------------12-10-7--12-10-----------------|
g---7-9----7-9-------------------7--7-9--------|
d-9-----9-------------------------------9------|
a----------------------------------------------|
e----------------------------------------------|

B  E7  F#m

e----------------------------------------------|
b---------------12-10-7--12-10-12-15-17--------|
g---7-9----7-9---------------------------------|
d-9-----9--------------------------------------|
a----------------------------------------------|
e----------------------------------------------|

B  E7  F#m

e----------------------------------------------|
b-12--12\7------7------------------------------|
g-------------9----------------7-------9~------|	x2
d------------------9~------9--------11---------|
a----------------------------------------------|
e----------------------------------------------|

(Bass arranged for guitar)
e----------------------------------------------|
b----------------------------------------------|
g----------------------------------------------|
d----------------------------------------------|
a---33/5---33/5---55/7---7---7/9---------------|
e-1------1------3------5---5-------------------|


by Ollie
olly_wolly@yahoo.com
-feel free to make corrections etc...
Comments