Arctic Monkeys - From The Ritz To The Rubble Chords & Tabs

 

From The Ritz To The Rubble Chords & Tabs

Arctic Monkeys Chords & Tabs

Version: 1 Type: Bass Tab 0 ratings
1 star 2 stars 3 stars 4 stars 5 stars
comments

From The Ritz To The Rubble Bass Tab

   
-------------------------------------------------------------------------------
			   Fake tales of San Fransisco - Arctic Monkeys
-------------------------------------------------------------------------------

Tuning: Standard - GDAE
[ Tab from: http://www.guitartabs.cc/tabs/a/arctic_monkeys/from_the_ritz_to_the_rubble_btab.html ]
Verse (x6):                              Chorus: (x4)
G|-------------------------7------------|------------------------------------------------|
D|------7-9----7-9-----7/9------9----7--|--------------------7-9-7-9---------------------|
A|------------------5--------77---55----|--5-7-5-7--7-9-7-9------------------------------|
E|---7-------7--------------------------|-----------------------------7777777777777777---|

Verse (x6)

Chorus (x6)

Bridge1 (x6):                           Bridge 2 (x2):
G|-------------------------------------|--------------------------------------|
D|-------------------------------------|--------------------------------------|
A|-------------------55555555-77777775-|-------------------555-555--777-7775--|
E|--7777777777777777-------------------|--777-777-777-777---------------------|

Bridge 1 (x4)

Verse (x1)

| /  slide up
| \  slide down
| h  hammer-on
| p  pull-off
| ~  vibrato
| +  harmonic
| x  Mute note
===============================================================================
Comments