Arctic Monkeys - Fake Tales Of San Fransisco Chords & Tabs

 

Fake Tales Of San Fransisco Chords & Tabs

Arctic Monkeys Chords & Tabs

Version: 2 Type: Tab 0 ratings
1 star 2 stars 3 stars 4 stars 5 stars
comments

Fake Tales Of San Fransisco Tab

   
Arctic Monkeys - Fake Tales Of San Fransisco
Tabbed By Danny Lee

Drum Intro

Intro Riff x 2
Guitar 1
e|----------------------------------------------------------------|
B|----------------------------------------------------------------|
G|----------------------------------------------------------------|
D|--------------------------------------------------------4-7-4---|
A|-----5-----5-7-5-----5-----5-7-5-----5-----5-7-5----5-7-------7-|
E|--7-----7---------7-----7---------7-----7---------7-------------|

Guitar 2 x 2
e|-----7-7-------5-----7-7-------5-----7-7-------5-----7-7--------|
B|-----7-7-------5-----7-7-------5-----7-7-------5-----7-7--------|
G|-----8-8-------5-----8-8-------5-----8-8-------5-----8-8--------|
D|----------------------------------------------------------------|
A|----------------------------------------------------------------|
E|----------------------------------------------------------------|

Verse x 4
Guitar 1
e|----------------------------------------------------------------|
B|----------------------------------------------------------------|
G|----------------------------------------------------------------|
D|--------------------------------------------------------4-7-4---|
A|-----5-----5-7-5-----5-----5-7-5-----5-----5-7-5----5-7-------7-|
E|--7-----7---------7-----7---------7-----7---------7-------------|

Guitar 2 x 4
e|-----7-7-------5-----7-7-------5-----7-7-------5-----7-7--------|
B|-----7-7-------5-----7-7-------5-----7-7-------5-----7-7--------|
G|-----8-8-------5-----8-8-------5-----8-8-------5-----8-8--------|
D|----------------------------------------------------------------|
A|----------------------------------------------------------------|
E|----------------------------------------------------------------|

Chorus - Guitars Silent
Bass fill at the end of each line except the last line.

E|---------------------------------------------------------0-3-5-7|
[ Tab from: http://www.guitartabs.cc/tabs/a/arctic_monkeys/fake_tales_of_san_fransisco_tab_ver_2.html ]
Verse 2 x 4 
Both guitars
e|----------------------------------------------------------------|
B|----------------------------------------------------------------|
G|----------------------------------------------------------------|
D|--------------------------------------------------------4-7-4---|
A|-----5-----5-7-5-----5-----5-7-5-----5-----5-7-5----5-7-------7-|
E|--7-----7---------7-----7---------7-----7---------7-------------|

Chorus 2 As Before

Bridge Both Guitars
e|----------------------------------------------------------------|
B|----------------------------------------------------------------|
G|--------------------------------9999999999999999----------------|
D|9999999999999999555555555555555599999999999999999999999999999999|
A|9999999999999999555555555555555577777777777777779999999999999999|
E|77777777777777773333333333333333----------------7777777777777777|

Verse 3 x 2 Both Guitars
e|----------------------------------------------------------------|
B|----------------------------------------------------------------|
G|--------------------------------9999999999999999----------------|
D|9999999999999999555555555555555599999999999999999999999999999999|
A|9999999999999999555555555555555577777777777777779999999999999999|
E|77777777777777773333333333333333----------------7777777777777777|

Chorus 3 Both Guitars
e|----------------------------------------------------------------|
B|----------------------------------------------------------------|
G|--------------------------------9999999999999999----------------|
D|9999999999999999555555555555555599999999999999995555555555555555|
A|9999999999999999555555555555555577777777777777775555555555555555|
E|77777777777777773333333333333333----------------3333333333333333|

Outro x 2          GUitar 1 joins here\|/
e|--x--7-7-------5-xx--7-7-------5-xx--7-7-------5-xx--7-7-------5|
B|--x--7-7-------5-xx--7-7-------5-xx--7-7-------5-xx--7-7-------5|
G|--x--8-8-------5-xx--8-8-------5-xx--8-8-------5-xx--8-8-------5|
D|-------------------------------------|--------------------------|
A|-------------------------------------|--------------------------|
E|-------------------------------------|--------------------------|
                                      /|\
Finish on xxx877 let ring
Comments