Arctic Monkeys - Fake Tales Of San Francisco Chords & Tabs

 

Fake Tales Of San Francisco Chords & Tabs

Arctic Monkeys Chords & Tabs

Version: 1 Type: Tab 0 ratings
1 star 2 stars 3 stars 4 stars 5 stars
comments

Fake Tales Of San Francisco Tab

   
Tabbed by Leolib
Email: leolibertine@gmail.com

Tuning Normal


Drum intro

Intro x 2
Guitar 1 with this funky riff
e|--------------------------------------------------------------------------|
B|--------------------------------------------------------------------------|
G|---------------------------------------------------------4----------------|
D|-----0-----0-2p0-----0-----0-2p0-----0-----0-2p0-----0-2---2-0------------|
A|--2-----2---------2-----2---------2-----2---------2-------------2---------|
E|--------------------------------------------------------------------------|

Guitar 2, played with up strokes (i think)
e|---7---7----5------7---7----5------7---7----5------7---7----5-------------|
B|---7---7----5------7---7----5------7---7----5------7---7----5-------------|
G|--------------------------------------------------------------------------|
D|--------------------------------------------------------------------------|
A|--------------------------------------------------------------------------|
E|--------------------------------------------------------------------------|

verse x 4
Guitar 1
   Fake Tales....
e|--------------------------------------------------------------------------|
B|--------------------------------------------------------------------------|
G|---------------------------------------------------------4----------------|
D|-----0-----0-2p0-----0-----0-2p0-----0-----0-2p0-----0-2---2-0------------|
A|--2-----2---------2-----2---------2-----2---------2-------------2---------|
E|--------------------------------------------------------------------------|


verse x 4
Guitar 2
e|---7---7----5------7---7----5------7---7----5------7---7----5-------------|
B|---7---7----5------7---7----5------7---7----5------7---7----5-------------|
G|--------------------------------------------------------------------------|
D|--------------------------------------------------------------------------|
A|--------------------------------------------------------------------------|
E|--------------------------------------------------------------------------|


Chorus x 4
Guitars stop and bass plays riff on last 'kick me out'

A|---------------------------------------------------------------------0-2--|
E|-----------------------------------------------------------------0-2------|

Back to verse x 4
Both Guitars
[ Tab from: http://www.guitartabs.cc/tabs/a/arctic_monkeys/fake_tales_of_san_francisco_tab.html ]
e|--------------------------------------------------------------------------|
B|--------------------------------------------------------------------------|
G|---------------------------------------------------------4----------------|
D|-----0-----0-2p0-----0-----0-2p0-----0-----0-2p0-----0-2---2-0------------|
A|--2-----2---------2-----2---------2-----2---------2-------------2---------|
E|--------------------------------------------------------------------------|

Then Chorus 2, played as before

Bridge using power chords
Guitar 1 x4
e|----------------------------------------------------------------|
B|----------------------------------------------------------------|
G|--------------------------------9999999999999999----------------|
D|9999999999999999555555555555555599999999999999999999999999999999|
A|9999999999999999555555555555555577777777777777779999999999999999|
E|77777777777777773333333333333333----------------7777777777777777|

Guitar 2 x4
e|----------------------------------------------------------------|
B|----------------------------------------------------------------|
G|----------------------------------------------------------------|
D|9999999999999999555555555555555522222222222222229999999999------|
A|9999999999999999555555555555555522222222222222229999999999-----7|
E|7777777777777777333333333333333300000000000000007777777777-7-10-|

Outro
Guitar 1

e|---7---7----5------7---7----5------7---7----5------7---7----5-------------|
B|---7---7----5------7---7----5------7---7----5------7---7----5-------------|
G|--------------------------------------------------------------------------|
D|--------------------------------------------------------------------------|
A|--------------------------------------------------------------------------|
E|--------------------------------------------------------------------------|

Then both guitars

e|---7---7----5------7---7----5------7---7----5------7---7----5-----7---|E
B|---7---7----5------7---7----5------7---7----5------7---7----5-----7---|N
G|----------------------------------------------------------------------|D
D|----------------------------------------------------------------------|E
A|----------------------------------------------------------------------|N
E|----------------------------------------------------------------------|D

Fantastic song by a fantastic band
love to the arctic army

| /  slide up
| \  slide down
| h  hammer-on
| p  pull-off
| ~  vibrato
| +  harmonic
| x  Mute note
Comments