Arctic Monkeys - Fake Tales Of San Francisco Chords & Tabs

 

Fake Tales Of San Francisco Chords & Tabs

Arctic Monkeys Chords & Tabs

Version: 1 Type: Bass Tab

Fake Tales Of San Francisco Bass Tab

Verse (x6)

           x3                       x1
G |:---------------:|--------------------------2--------|
D |:-----0---0-2-0-:|-----0---0-2-0------0-2-4---2-0----|
A |:-2-----2-------:|-2-----2---------2--------------2/-|
E |:---------------:|-----------------------------------|

Chorus (x3

G |:---------:
D |:---------:
A |:-----0-2-:
E |:-0-2-----:

After Chorus (x3)

G |:--------------------------------------------------4-4-2-2----2-2------|
D |:----------------------------------------------------------4-4---2-2-2-|
A |:-2-2-2-2-2-2-2-2-2-2-2-2-2-2-2-2--------------------------------------|
E |:----------------------------------3-3-3-3-3-3-3-3---------------------|
[ Tab from: http://www.guitartabs.cc/tabs/a/arctic_monkeys/fake_tales_of_san_francisco_btab.html ]
G -----------4-4-2-2----2-2-------------------------------:|
D -2-2-2-2-2--------4-4-----------------------------------:|
A --------------------------2-2-2-2-2-2-2-2-2-2-2-2-------:|
E---------------------------------------------------7-8-9-:|

(x1)

G |--------------------------------------------------4-4-2-2----2-2------|
D |----------------------------------------------------------4-4---2-2-2-|
A |-2-2-2-2-2-2-2-2-2-2-2-2-2-2-2-2--------------------------------------|
E |----------------------------------3-3-3-3-3-3-3-3---------------------|

G -----------4-4-2-2----2-2-------------------------------------|
D -2-2-2-2-2--------4-4-----------------------------------------|
A --------------------------------------------------------------|
E---------------------------3-3-3-3-3-3-3-3-3-3-3-3-3-3-3-3--7/-|

Ending (x1)

G |-----------------------------------------------------|
D |-----0-----------0-----------0------------0----------|
A |-2-----2-----2-----2-----2-----2------2-----2---0-2/-|
E |-----------------------------------------------------|