Arctic Monkeys - Dancing Shoes Chords & Tabs

 

Dancing Shoes Chords & Tabs

Arctic Monkeys Chords & Tabs

Version: 3 Type: Tab 0 ratings
1 star 2 stars 3 stars 4 stars 5 stars
comments

Dancing Shoes Tab

This is my first tab, any feedback appreciated, email friskyfleabag@aol.com

Listen to song for timing etc.

Tabbed by Ben Wright


Intro ('Get on your dancing shoes'):
e---------------------------------------------------|
B---------------------------------------------------|
G---------------------------------------------------|   
D-----4--1--------4--1------------------2-2-2--4-2--|  x4
A----------2-----------2---4-4-4--6-4---------------|
E-4-4---------4-4-----------------------------------|


Chorus ('The only reason that you came'):
e------------------------------------------------------|
B------------------------------------------------------|
G-------6--4------------------------6--4---------------|
D-6--4--4--4--6---------------6--4--4--4--6------------|  
A-6--4--4--2--4---------------6--4--4--2--4------------|
E-4--2--------4-4-4--2-4------4--2--------4-4-4--4-4---|


e------------------------------------------------------|
B------------------------------------------------------|
G-------6--4------------------------6--4---------------|
D-6--4--4--4--6---------------6--4--4--4--6------------|  
A-6--4--4--2--4---------------6--4--4--2--4------------|
E-4--2--------4-4-4--2-4------4--2--------4------------|



Verse ('The lights are flashing'):
e---------------------------------------------------------|
B---------------------------------------------------------|
G---------------------------------------------------------|
D----------------------------------------2-2-2--4-2-------|  x2
A---------------------------4-4-4--6-4--------------------|
E-4-4-4--2-4---4-4-4--2-4---------------------------------|


On 3rd time there's 1 extra note ('Don't act like it's not happening'):
e---------------------------------------------------------|
B---------------------------------------------------------|
G---------------------------------------------------------|
D----------------------------------------2-2-2--4-2-------|  
A------------2--------------4-4-4--6-4--------------------|
E-4-4-4--2-4---4-4-4--2-4---------------------------------|

[ Tab from: http://www.guitartabs.cc/tabs/a/arctic_monkeys/dancing_shoes_tab_ver_3.html ]
Then 4th time back to normal ('To go and mention your name'):
e---------------------------------------------------------|
B---------------------------------------------------------|
G---------------------------------------------------------|
D----------------------------------------2-2-2--4-2-------|  
A---------------------------4-4-4--6-4--------------------|
E-4-4-4--2-4---4-4-4--2-4---------------------------------|


Chorus ('The only reason that you came'):
e------------------------------------------------------|
B------------------------------------------------------|
G-------6--4------------------------6--4---------------|
D-6--4--4--4--6---------------6--4--4--4--6------------|  
A-6--4--4--2--4---------------6--4--4--2--4------------|
E-4--2--------4-4-4--2-4------4--2--------4-4-4--4-4---|


e------------------------------------------------------|
B------------------------------------------------------|
G-------6--4------------------------6--4---------------|
D-6--4--4--4--6---------------6--4--4--4--6------------|  
A-6--4--4--2--4---------------6--4--4--2--4------------|
E-4--2--------4-4-4--2-4------4--2--------4------------|



Backing guitar for solo (haven't worked out solo yet, watch this space):
e-------------------------------------------|
B-------------------------------------------|
G-----------------6666666699999999----------|
D-66666666666666666666666699999999----------| x4  
A-66666666666666664444444477777777----------|
E-4444444444444444--------------------------|


Then back to intro ('Get on your dancing shoes'):
e---------------------------------------------------|
B---------------------------------------------------|
G---------------------------------------------------|   x2
D-----4--1--------4--1------------------2-2-2--4-2--|
A----------2-----------2---4-4-4--6-4---------------|
E-4-4---------4-4-----------------------------------|


'Oh and the shit, shock horror' (short pause between each chord)
e---------------------------------------------------|
B---------------------------------------------------|
G------------------6-6-6-6-9-9-9-9------------------|   
D--6-6-6-6-6-6-6-6-6-6-6-6-9-9-9-9------------------|  x2
A--6-6-6-6-6-6-6-6-4-4-4-4-7-7-7-7------------------|
E--4-4-4-4-4-4-4-4----------------------------------|


Outro:
e-----------------------------------------------------------|
B-----------------------------------------------------------|
G-----------------------------------------------------------|   
D--6-6-6--4-6-----6-6-6--4-6-----6-6-6--4-6-----6-6-6--4-6--|
A--6-6-6--4-6-----6-6-6--4-6-----6-6-6--4-6-----6-6-6--4-6--|
E--4-4-4--2-4-----4-4-4--2-4-----4-4-4--2-4-----4-4-4--2-4--|



Comments