Arctic Monkeys - Dancing Shoes Chords & Tabs

 

Dancing Shoes Chords & Tabs

Arctic Monkeys Chords & Tabs

Version: 1 Type: Tab 0 ratings
1 star 2 stars 3 stars 4 stars 5 stars
comments

Dancing Shoes Tab

Verse:
e------------------------------------------------|
B------------------------------------------------|
G------------------------------------------------|
D------------------------------------------------|
A-------------------------4-4-4--6-4--7-7-7--9-7-|
E-4-4-4--6-4--4-4-4--6-4-------------------------|
[ Tab from: http://www.guitartabs.cc/tabs/a/arctic_monkeys/dancing_shoes_tab.html ]
Chorus:
e---------------------    -----------|
B---------------------    -----------|
G-----6-4-------------    -----6-4---|
D-6-4-6-4-6--6-6--6-6-    -6-4-6-4-6-|
A-6-4-4-2-6--6-6--6-6- x3 -6-4-4-2-6-|
E-4-2-----4--4-4--4-4-    -4-2-----4-|

Verse 2:
e----------------|
B----------------|
G------6----9----|
D-6----6-x4-9-x4-|
A-6-x8-4----7----|
E-4--------------|

Outro:
e------------|
B------------|
G------------|
D-6-6-6--4-6-|
A-6-6-6--4-6-|
E-4-4-4--2-4-|

Song Order:
Verse x4
Chorus
Verse x4
Chorus
Solo (rhythm plays verse x4)
Verse x2
Verse 2 x2
Outro x4
Comments