Arctic Monkeys - Curtains Close Chords & Tabs

 

Curtains Close Chords & Tabs

Arctic Monkeys Chords & Tabs

Version: 1 Type: Tab 0 ratings
1 star 2 stars 3 stars 4 stars 5 stars
comments

Curtains Close Tab

Arctic Monkeys

Curtains close

Tabber : Dave Mullen

Email : charli_baltimore_inc@hotmail.com


Rhythm
E|-3--3--3-3-3--3-/-6-6-6--6-/-8--8--8---------------------------|
B|-3--3--3-3-3--3-/-6-6-6--6-/-8--8--8---------------------------|
G|-4--4--4-4-4--4-/-7-7-7--7-/-9--9--9---------------------------|
D|-5--5--5-5-5--5-/-8-8-8--8-/-10-10-10--------------------------|
A|-5--5--5-5-5--5-/-8-8-8--8-/-10-10-10--------------------------|
E|-3--3--3-3-3--3-/-6-6-6--6-/-8--8--8---------------------------|

[ Tab from: http://www.guitartabs.cc/tabs/a/arctic_monkeys/curtains_close_tab.html ]
Lead
E|------------------------------------------------------------|
B|------------------------------------------------------------|
G|-0-3-5--7-7-7-7-7-5-3-0--0-3-5--7-7-7-5-3-0-0-3--0-0-3------|
D|------------------------------------------------------------|
A|------------------------------------------------------------|
E|------------------------------------------------------------|


E|--------------------------------------------------------------|
B|--------------------------------------------------------------|
G|-0-3-5--7-7-7-7-7-5-3-0--0-3-5--7-7-10-7-5-3b-3b-3b-5b-5b-5b--|
D|--------------------------------------------------------------|
A|--------------------------------------------------------------|
E|--------------------------------------------------------------|
Comments