Arctic Monkeys - Choo Choo Chords & Tabs

 

Choo Choo Chords & Tabs

Arctic Monkeys Chords & Tabs

Version: 1 Type: Tab 0 ratings
1 star 2 stars 3 stars 4 stars 5 stars
comments

Choo Choo Tab

   
BY THE BULKS GUITARISTS OLLY STUBBINGS,DARCY BUM

VERSE riff guitar 1         guitar 2

e--------------             e---9-9------|
B--------------             B---9-9------|
G--------------             G---9-9------|
D--------------             D------------|
A-9-7-9-7------             A------------|
E--------9-7-9-             E------------|

[ Tab from: http://www.guitartabs.cc/tabs/a/arctic_monkeys/choo_choo_tab.html ]
BRIDGE (POWERCHORDS)X2
     X3          THEN               X1
e----------------    e---------------------------------|
B----------------    E---------------------------------|
G----------------    G---------------------------------|
D-11-11-11-11-11-    D-11-11-11-11-9-9-9-9-11-11-11-11-|
A-11-11-11-11-11-    A-11-11-11-11-9-9-9-9-11-11-11-11-|
E-9--9--9--9--9--    E-9--9--9--9--7-7-7-7-9--9--9--9--|


CHORUS riff

e----------------------|
B----------------------|
G----------------------|
D----------------------|
A-------9-7--777-7-----|
E-7-7-10----------10-9-|


AFTER CHORUS SHORT SOLO

e----------------------------|
B----------------------------|
G-------------------7s-------|
D-----------------7s---------|
A--7-9-10-9b-7b-7s----7s-----|
E-7--------------------------|
Comments