Arctic Monkeys - Black Treacle Chords & Tabs

 

Arctic Monkeys Chords & Tabs

Version: 1 Type: Tab 0 ratings
1 star 2 stars 3 stars 4 stars 5 stars
comments

Black Treacle Tab

   
#MINOR CHORDS SHOWN IN LOWER CASE#
#Guitar Chords used:
G 320003 or 355433
D xx0232 or 10 12 12 11 10 10
C x32010 or 8 10 10 9 8 8
a x02210
c x35543
e 022000
#

Intro
GG  GG  GG  GG

Verse1
| GG  GG  GG  GG  GG  GG  DDDDCC  CC  GG  GG  DD  DD  CC  CC  | x2

GG GGG GGG GGG GGG GGG GG

Chorus
| CCCCDDDDGGGGGGGG | x2
CCCCDDDDGGGGaaaac
GGGGGGGGc

Guitar Tab:
-----------------------------------------------|
-----------------------------------------------|
-14b15-9b11rb9--9b10r9-7\4---------------------|
-----------------------------------------------|
-----------------------------------------------|
-----------------------------------------------|

Verse2
GG GGG GGG GGG GGG GGG GDDDDCC CCC CGG GGG GDD DDD DCC CCC C
GG GGG GGG GGG  GG GGG GDDDDCC  CC CGG  GG GDD  DD DCC CCC C
GG GGG GG

Chorus

Middle8
CCCCCCCCDDDDDDDDGGGGGGGGGGGGGGGG
CCCCCCCCDDDDDDDDGGGGGGGGeeeeeeee
CCCCCCCCDDDDDDDDGGGGGGGGcccccccc
CCCCCCCCD

-----------------------------------------------|
-----------------------------------------------|
-14b15-9b11r9--9b10r9-7\4----------------------| x3
-----------------------------------------------|
-----------------------------------------------|
-----------------------------------------------|

----------------------------------------------|
----------------------------------------------|
-14b15-9b11r9-9b11r9b10\7---------------------|
----------------------------------------------|
----------------------------------------------|
----------------------------------------------|

Guitar2

---------------------------------------------------|
---------------------------------------------------|
-0-x25---------------------------------------------|
-5-x25---------------------------------------------|
---------------------------------------------------|
---------------------------------------------------|

Chorus
---------------------------------------------------|
-------------------------12------------------------|
----12-14-12----14-16-14-12------------------------| x3
-14----------16----------12------------------------|
---------------------------------------------------|
---------------------------------------------------|

---------------------------------------------------|
-10--8---------------------------------------------|
-9---8--0(x8)--0-0-0-0-4-4-4-4-0-0-0-0-0-0-0-0-0---|
-10--10-5(x8)--5-5-5-5-4-4-4-4-2-2-2-2--------/5---|
---------------------------------------3-3-3-3-----|
---------------------------------------------------|
[ Tab from: http://www.guitartabs.cc/tabs/a/arctic_monkeys/black_treacle_tab.html ]
-----------------------------------------------------|
-----------------------------------------------------|
-0-----0--0--0--0--0--0--0--0--0--0--0-----0--0--0---|
-16b17-17-17-17-17-17-17-17-17-17-17-17r16-16-16-16--|
-----------------------------------------------------|
-----------------------------------------------------|

-----------------------------------------------------|
-----------------------------------------------------|
-0-----0--0--0--0--0--0--0---0--0--0--0--0--0--0--0--|
-16b17-17-17-17-17-17-17-17rb16-16-16-16-14-14-14-14-|
-----------------------------------------------------|
-----------------------------------------------------|

---------------------------------------------------------------|
---------------------------------------------------------------|
-0--0--0--0--0-0-0-0-0-0-0-0-0-0-0-0-0-0-0-0-0-0-0-0-0-0-0-0-0-|
-14-14-14-14-9-9-9-9-9-9-9-9-7-7-7-7-7-7-7-7-5-5-5-5-5-5-5-5-5-|
---------------------------------------------------------------|
---------------------------------------------------------------|


----------------------------------------------------|
----------------------------------------------------|
-14b16-9b11r9-7b9r7-7b9-4b5r4-2-0-0-0-0-0-0-0-0-0---|
--------------------------------5-5-5-5-5-5-5-5-5---|
----------------------------------------------------|
----------------------------------------------------|

Chorus

Middle8                                        x
--------------------|--------------------------|
--------------------|--------------------------|
-0-0--0-0--0-0--0-0-|-----------------0-(x16)--|
-5-5--5-5--5-5--5-5-|-14-(x8)-16-(x8)-17(x16)--|
--------------------|-15-(x8)-17-(x8)----------|
--------------------|--------------------------|

-----------------------------------------------|
-----------------------------------------------|
-----------------0-(x8)-0-(x8)-----------------|
-14-(x8)-16-(x8)-17(x8)-13(x8)--14(x8)-16------|
-15-(x8)-17-(x8)----------------15(x8)-17------|
-----------------------------------------------|

                                   x3
|----------------------------------|--|
|----------------------------------|--|
|--0-0-0-0-4-4-4-4-0-0-0-0-0-0-0-0-|--|
|--5-5-5-5-4-4-4-4-2-2-2-2---------|--|
|--------------------------3-3-3-3-|--|
|----------------------------------|--|

|----------------------------------|---|
|----------------------------------|---|
|--0-0-0-0-4-4-4-4-0-0-0-0-0-0---0-|-0-|
|--5-5-5-5-4-4-4-4-2-2-2-2---------|-5-|
|--------------------------3-3---3-|---|
|----------------------------------|---|
Comments