Arctic Monkeys - A Certain Romance Chords & Tabs

 

A Certain Romance Chords & Tabs

Arctic Monkeys Chords & Tabs

Version: 1 Type: Bass Tab 0 ratings
1 star 2 stars 3 stars 4 stars 5 stars
comments

A Certain Romance Bass Tab

This is the main bass riff bit that I've worked out, think it should be mostly right.

G|------------------------------------------------|
D|--------8-----------8-----------8-----------8---|
A|--6-6-9---9---6-6-9---9---6-6-9---9---6-6-9---9-|
E|7-----------7-----------7-----------7-----------|
[ Tab from: http://www.guitartabs.cc/tabs/a/arctic_monkeys/a_certain_romance_btab.html ]
G|------7/9-----------7/9-----------7/9-------------------|
D|--6-6-----9-9---6-6-----9-9---6-6-----9-9---6-6---------|
A|7-------------7-------------7-------------7-----9-9-7-7-|
E|--------------------------------------------------------|
Then it goes back to the beginning and repeats itself.

Worked out by Jennifer Waiting :)
Comments