Archive - Goodbye Chords & Tabs

 

Goodbye Chords & Tabs

Archive Chords & Tabs

Version: 1 Type: Tab 0 ratings
1 star 2 stars 3 stars 4 stars 5 stars
comments

Goodbye Tab

   
Goodbye-Archive                        <>

Chords:     G       D       Em     C
               -3-      -5-       -7-     -8---|
               -3-      -7-       -8-     -8---|
               -4-      -7-       -9-     -9---|
               -5-      -7-       -9-     -10--|
               -5-      -5-       -7-     -10--|
               -3-      -X-      -X-     -8----|


                G                            D
 |7----7----7---------7-----|--5------5--------5--------5---------|
 |--8----8-----8--------8---|----7------7---------7--------7------|
 |----7----7------7--------7|------7-------7---------7--------7---|
 |--------------------------|-------------------------------------|
 |--------------------------|-------------------------------------|
 |--------------------------|-------------------------------------|
          Em                                      C
[ Tab from: http://www.guitartabs.cc/tabs/a/archive/goodbye_tab.html ]
  |3---- 3-------3--------3---------|3-----3-------3-------3----------|
  |--5------5--------5-------5------|--5-------5------5-------5-------|
  |----4-------4---------4-------4--|----5--------5------5--------5---|
  |---------------------------------|---------------------------------|
  |---------------------------------|---------------------------------|
  |---------------------------------|---------------------------------| 4X

G                    D
I`m thinking of you
Em             C
In my sleep
G                           D
They`re not good thouths
Em                      C
the worst kind of sad
G                       D
connot be repaired
Em               C
when i wake up
G                  D
i`II be in despair
Em               C


          G

         Cos i know I`ve got to saw
          G
         I know I`ve got to saw

CHORUS:
 G         D        Em           C
 goodbye        baby goodbye
G         D        Em           C
goodbye         baby goodbye
  G                D       Em         C
your`re my sweetheart goodbye
  G              D         Em        C
your`re my sweetest   goodbye


                     <>
Comments