Archers Of Loaf - Fashion Bleeds Chords & Tabs

 

Fashion Bleeds Chords & Tabs

Archers Of Loaf Chords & Tabs

Version: 2 Type: Tab 0 ratings
1 star 2 stars 3 stars 4 stars 5 stars
comments

Fashion Bleeds Tab

   
"Fashion Bleeds"
by Archers of Loaf (Bachmann/Gentling/Johnson/Price)
White TRash Heroes
Copyright 1998 ARRA Music
Transcribed by D Nadolny

Eric Johnson plays in dropped-D tuning, while Eric Bachmann plays (low to high) high D,low D,A,D,A,A.


Intro:

Johnson chords:
  C5  D5  C5   D5  Bb  F5  Bb  F  C5  D5
E -----------------------------------------|
B -----------------3-------3-----------3---|
G -5---2---5---2---3-------3-------5---2---|
D -5---0---5---0---3---3---3---3---5---0---|
A -3---0---3---0---1---3---1---3---3---0---|
D -----0-------0-------3-------3-------0---|

Bachmann riff (throughout song)

A -8---5-5---10-10---5-5--8-8---3-3--5-5-0-0-3-3-0----|
A -8---5-5---10-10---5-5--8-8---3-3--5-5-0-0-3-3-0----|
D ----------------------------------------------------|
A ----------------------------------------------------|
D ----------------------------------------------------|
D ----------------------------------------------------|
[ Tab from: http://www.guitartabs.cc/tabs/a/archers_of_loaf/fashion_bleeds_tab_ver_2.html ]
Johnson chords in verse:

 D5-F5-Bb-D5-Bb-F5-C5-Bb

Johnson outro chords:

 D5-Bb-C5-F5-Bb-C5-F5-Bb

Keyboard outro (in EJ tuning);

E ----17----17---17--17-------15----17----17---17--17-------15---|
B -15----15----15--15--15--13----15----15----15--15--15--13------|
G ---------------------------------------------------------------|
D ---------------------------------------------------------------|
A ---------------------------------------------------------------|
D ---------------------------------------------------------------|

E ----13-----13---13--13--------------13----13---13--13------15--|
B -11----11-----11--11--11-----13--11----11----11--11--11-13-----|
G --------------------------10-----------------------------------|
D ---------------------------------------------------------------|
A ---------------------------------------------------------------|
D ---------------------------------------------------------------|
Comments