Arch Enemy - We Will Rise Chords & Tabs

 

We Will Rise Chords & Tabs

Arch Enemy Chords & Tabs

Version: 2 Type: Tab 0 ratings
1 star 2 stars 3 stars 4 stars 5 stars
comments

We Will Rise Tab

   
			     Arch Enemy - We Will Rise 
Tabbed by: Lindsi
Email: lindsi_98103@hotmail.com

Tuning: Down two whole steps 

 INTRO
Gtr 2 (lead)
e|---------------------------------------------------------------------------
B|---------------------------------------------------------------------------
G|--13--13--13--13--13--13--13--13--13--13--13--13--13--13--13--13-----------
D|--x----x---x---x---x---x---x---x---x---x---x---x---x---x---x---x-----------
A|--11--11--11--11--11--11--11--11--11--11--11--11--11--11--11--11-----------
E|---------------------------------------------------------------------------

e|---------------------------------------------------------------------------
B|---------------------------------------------------------------------------
G|--14--14--14--14--14--14--14--14----------12--12--12--12--12--12--12--12---
D|---x---x---x---x---x---x---x---x-----------x---x---x---x---x---x---x---x---
A|--12--12--12--12--12--12--12--12----------10--10--10--10--10--10--10--10---
E|---------------------------------------------------------------------------

e|---------------------------------------------------------------------------
B|---------------------------------------------------------------------------
G|--9--9--9--9--9--9--9--9--9--9--9--9--9--9--9--9--9--9--9--9--9--9--9------
D|--x--x--x--x--x--x--x--x--x--x--x--x--x--x--x--x--x--x--x--x--x--x--x------
A|--7--7--7--7--7--7--7--7--7--7--7--7--7--7--7--7--7--7--7--7--7--7--7------
E|---------------------------------------------------------------------------


e|---------------------------------------------------------------------------
B|---------------------------------------------------------------------------
G|--11--8--8--8--8--8--8--8--8-----Repeat 3 times----------------------------
D|---x--x--x--x--x--x--x--x--x-----------------------------------------------
A|---9--6--6--6--6--6--6--6--6-----------------------------------------------
E|---------------------------------------------------------------------------

Gtr 1 (rythem)
e|---------------------------------------------------------------------------
B|---------------------------------------------------------------------------
G|---------------------------------------------------5--5--5--5--5--5--5--5--
D|--2--2--2--2--2--2--2--2--2--2--2--2--2--2--2--2---x--x--x--x--x--x--x--x--
A|--x--x--x--x--x--x--x--x--x--x--x--x--x--x--x--x---3--3--3--3--3--3--3--3--
E|--0--0--0--0--0--0--0--0--0--0--0--0--0--0--0--0---------------------------

e|---------------------------------------------------------------------------
B|---------------------------------------------------------------------------
G|--5--5--5--5--5--5--5--5--2--2--2--2--2--2--2--2--2--2--2--2--2--2--2--2---
D|--x--x--x--x--x--x--x--x--x--x--x--x--x--x--x--x--x--x--x--x--x--x--x--x---
A|--3--3--3--3--3--3--3--3--0--0--0--0--0--0--0--0--0--0--0--0--0--0--0--0---
E|---------------------------------------------------------------------------

e|---------------------------------------------------------------------------
B|---------------------------------------------------------------------------
G|--4--4--4--4--4--4--4--4--4--4--4--4--4--4--4--4----Repete 3 Times---------
D|--x--x--x--x--x--x--x--x--x--x--x--x--x--x--x--x---------------------------
A|--2--2--2--2--2--2--2--2--2--2--2--2--2--2--2--2---------------------------
E|---------------------------------------------------------------------------

Verse: Gtrs 1 + 2
e|---------------------------------------------------------------------------
B|---------------------------------------------------------------------------
G|--9------Let Ring----------------------------------------------------------
D|--x------------------------------------------------------------------------
A|--7------------------------------------------------------------------------
E|---------------------------------------------------------------------------

e|---------------------------------------------------------------------------
B|---------------------------------------------------------------------------
G|---------------------------------------------------------------------------
D|---------------------------------------------------------------------------
A|--17\-----------5h-7-------5---2------------3-------2-----0-------5h-7-----
E|--17\------5h-7----------0---0---0---0---0--1----1--0--0-----5h-7----------
PM  PM  PM-------       PM    PM
        
e|---------------------------------------------------------------------------
B|---------------------------------------------------------------------------
G|---------------------------------------------------------------------------
D|---------------------------------------------------------------------------
A|----8----5-----------5-------3--------5h-7---------------------------------
E|-0----0-----0--0--0--3---0---1---5h-7--------------------------------------
   PM   PM    PM------      PM
e|---------------------------------------------------------------------------
B|---------------------------------------------------------------------------
G|---------------------------------------------------------------------------
D|---------------------------------------------------------------------------
A|----5----2----------3------2-----0--------5h-7-----------------------------
E|-0----0----0--0--0--1---1--0--0------5h-7----------------------------------
   PM   PM   PM-----      PM   PM
e|---------------------------------------------------------------------------
B|---------------------------------------------------------------------------
G|---------------------------------------------------------------------------
D|---------------------------------------------------------------------------
A|----8----5-----------5--3--------------------------------------------------
E|-0----0-----0--0--0--3--1--------------------------------------------------
   PM   PM   PM------


e|---------------------------------------------------------------------------
B|---------------------------------------------------------------------------
G|---------------------------------------------------------------------------
D|---------------------------------------------------------------------------
A|---------------------5h-8--------------------------5h-7--------------------
E|-0----0----0----5h-7-----------0----0----0----5h-7-------------------------
    ~tremolo~                     ~tremolo~
e|---------------------------------------------------------------------------
B|---------------------------------------------------------------------------
G|---------------------------------------------------------------------------
D|---------------------------------------------------------------------------
A|--------------------5h-8-------------------2-------------------------------
E|-0----0----0---5h-7---------0----0----0----0-------------------------------
    ~tremolo~                  ~tremolo~


Repeat intro 2 times
Verse


Guiatr solo
e|---------------------------------------------------------------------------
B|-------------13--11~~~~---------10--8~~~~--------------11--10~~~~----------
G|---------------------------------------------------------------------------
D|-----12--13--------------8--10-----------------10--12----------------------
A|-10-------------------6---------------------8------------------------------
E|---------------------------------------------------------------------------
  PM---------          PM-------             PM--------
                    
e|---------------------------------------------------------------------------
B|-11--10------11--10--(11)------------------13b(15)r(13)--11~~~~------------
G|---------12----------------------------------------------------------------
D|-----------------------------------12--13----------------------------------
A|-------------------------------10------------------------------------------
E|---------------------------------------------------------------------------
                   tr~~~~~      PM---------
e|---------------------------------------------------------------------------
B|-----------10b(11)r(10)--8~~~~-------------11--10~~~~----------------------
G|---------------------------------------------------------------------------
D|----8--10--------------------------10--12----------------------------------
A|-6------------------------------8------------------------------------------
E|---------------------------------------------------------------------------
  PM-------                      PM--------
e|-18--15--17--18--17--15--18--15--17--18--17--15--19------------------------
B|-----------------------------------------------------12--15--15b(17)~~~~---
G|---------------------------------------------------------------------------
D|---------------------------------------------------------------------------
A|---------------------------------------------------------------------------
E|---------------------------------------------------------------------------
[ Tab from: http://www.guitartabs.cc/tabs/a/arch_enemy/we_will_rise_tab_ver_2.html ]
e|----------------------15--14-------------------12-----------12-------------
B|-12--15--15b(17)~~~~----------12--15--15b(17)------15b(17)-----------------
G|---------------------------------------------------------------------------
D|---------------------------------------------------------------------------
A|---------------------------------------------------------------------------
E|---------------------------------------------------------------------------

e|----------12-----------12-----------12-----------12-----------12-----------
B|-15b(17)------15b(17)------15b(17)------15b(17)------15b(17)---------------
G|---------------------------------------------------------------------------
D|---------------------------------------------------------------------------
A|---------------------------------------------------------------------------
E|---------------------------------------------------------------------------

e|----------12-----------12-----------12-----------12------12--17--12--------
B|-15b(17)------15b(17)------15b(17)------15b(17)------15--------------15----
G|---------------------------------------------------------------------------
D|---------------------------------------------------------------------------
A|---------------------------------------------------------------------------
E|---------------------------------------------------------------------------

e|-12--17--12------12--17--12------12--17--12------12--17--12------12--15----
B|-------------15--------------15--------------15--------------15------------
G|---------------------------------------------------------------------------
D|---------------------------------------------------------------------------
A|---------------------------------------------------------------------------
E|---------------------------------------------------------------------------

e|17--17b(19)r(17)-14--------------------------------------------------------
B|--------------------15--12---------------------10b(11)r(10)--8~~~~~~-------
G|----------------------------12\11~~~~~~~~~~~~--11b(12)r(11)--9~~~~~~-------
D|---------------------------------------------------------------------------
A|---------------------------------------------------------------------------
E|---------------------------------------------------------------------------

PreChorse
e|---------------------------------------------------------------------------
B|---------------------------------------------------------------------------
G|---------------------------------------------------------------------------
D|---------------------------------------------------------------------------
A|----5-----2-----------3-----2-----0--------5h-7----------------------------
E|-0-----0-----0--0--0--1--1--0--0-----5h-7----------------------------------
   PM    PM    PM-----     PM    PM
e|---------------------------------------------------------------------------
B|---------------------------------------------------------------------------
G|---------------------------------------------------------------------------
D|---------------------------------------------------------------------------
A|----8-----5-----------5-----3--------5h-7----------------------------------
E|-0-----0-----0--0--0--3--0--1--5h-7----------------------------------------

e|---------------------------------------------------------------------------
B|---------------------------------------------------------------------------
G|---------------------------------------------------------------------------
D|---------------------------------------------------------------------------
A|----5-----2-----------3-----2--0--------5h-7-------------------------------
E|-0-----0-----0--0--0--1--0--0-----5h-7-------------------------------------

e|---------------------------------------------------------------------------
B|---------------------------------------------------------------------------
G|---------------------------------------------------------------------------
D|---------------------------------------------------------------------------
A|----8-----5-----------5--3-------------------------------------------------
E|-0-----0-----0--0--0--3--1-------------------------------------------------
   PM   PM     PM-----

Intro 2 times

Outro Guitar Solo
e|---------------------------------------------------------------------------
B|---------17----------17----------17----------17----------17----------------
G|-14--16------14--16------14--16------14--16------14--16------14--16--17----
D|---------------------------------------------------------------------------
A|---------------------------------------------------------------------------
E|---------------------------------------------------------------------------

e|---------------------------------------------------------------------------
B|20---------20----------20----------20----------20--------------22----------
G|---16--17------16--17------16--17------16--17------16--17--21------17--21--
D|---------------------------------------------------------------------------
A|---------------------------------------------------------------------------
E|---------------------------------------------------------------------------

e|---------------------------------------------------------------------------
B|22----------22----------22----------22--------------24----------24---------
G|---17--21------17--21------17--21------17--21--23------21--23------21--23--
D|---------------------------------------------------------------------------
A|---------------------------------------------------------------------------
E|---------------------------------------------------------------------------

e|------------------------------19---------17---------19~~~~~~~~-------------
B|-24--------24----------15/17------17\15------15\17-------------------------
G|----21--23------20--23-----------------------------------------------------
D|---------------------------------------------------------------------------
A|---------------------------------------------------------------------------
E|---------------------------------------------------------------------------
                                                   ~tremolo~
e|--------22---------22---------22~~~~~~--22b(24)-----22-----17b(19)~~~~~~---
B|-19\20------20/19------19\20-----------------------------------------------
G|---------------------------------------------------------------------------
D|---------------------------------------------------------------------------
A|---------------------------------------------------------------------------
E|---------------------------------------------------------------------------

e|-17b(19)r(17)--15--17b(19)~~~~--15--17--15/14--15--14------17~~~~~~--------
B|-------------------------------------------------------15------------------
G|---------------------------------------------------------------------------
D|---------------------------------------------------------------------------
A|---------------------------------------------------------------------------
E|---------------------------------------------------------------------------

e|--------19---------17---------19~~~~~~---------15------15--14b(15)r(14)----
B|-15\17------17/15------15\17------------10\12------12----------------------
G|---------------------------------------------------------------------------
D|---------------------------------------------------------------------------
A|---------------------------------------------------------------------------
E|---------------------------------------------------------------------------

e|-12----------------12------------------------------------------------------
B|-----15b(17)~~~~~------15--12----------------------------------------------
G|-------------------------------14~~~~~~~-----------------------------------
D|---------------------------------------------------------------------------
A|------------------------------------------------------14--15--17--14--15---
E|------------------------------------------14--15--17-----------------------

e|---------------------------------------------------------------------------
B|-----------------------------------------------------15--17--19--16--17----
G|-----------------------------14--16--17--14--16--17------------------------
D|-----14--16--17--14--16--17------------------------------------------------
A|-17------------------------------------------------------------------------
E|---------------------------------------------------------------------------

e|----15--17--19--------------15--17--19------------17--19--20--22b(24)~~~---
B|-19-------------16--17--19-------------17--19--20--------------------------
G|---------------------------------------------------------------------------
D|---------------------------------------------------------------------------
A|---------------------------------------------------------------------------
E|---------------------------------------------------------------------------

e|-22b(24)r(22)--19----------------------------------------------------------
B|---------------------------------------------------------------------------
G|-----------------------------Fade Out--------------------------------------
D|---------------------------------------------------------------------------
A|---------------------------------------------------------------------------
E|---------------------------------------------------------------------------


        You're gunna have to figure out the order yourself cuz i'm too lazy. 
        It's a fun song to play so have fun. ENJOI!!! Any corrections e mail 
        me with proof.
                         
| PM Palm Mute
| tr~ Trill
| /  slide up
| \  slide down
| h  hammer-on
| p  pull-off
| ~  vibrato
| +  harmonic
| x  Mute note
=============================================================================
Comments