Arch Enemy - Nemesis Chords & Tabs

 

Nemesis Chords & Tabs

Arch Enemy Chords & Tabs

Version: 2 Type: Tab 0 ratings
1 star 2 stars 3 stars 4 stars 5 stars
comments

Nemesis Tab

pre solo
D-------------------------------------------|
A---------8-9-6--------------8--------------|
F-5-5h7-8---------------7-10---8-8h7-5-5h7--|
C----------------8-8h10---------------------|
G-------------------------------------------|
C-------------------------------------------|

D-------------------------------------------|
A---8-9-6--11p9h11-11^----------10-11-8-----|
F-8---------------------7-7h9-10------------|
C-------------------------------------------|
G-------------------------------------------|
C-------------------------------------------|

D-------------------------------------------|
A---------------10-----------------10-11-8--|
F----------9-12---10-10p9-7-7h9-10----------|
C-10-10h12----------------------------------|
G-------------------------------------------|
C-------------------------------------------|
[ Tab from: http://www.guitartabs.cc/tabs/a/arch_enemy/nemesis_tab_ver_2.html ]
D-------------------------------------------|
A-13p11h13--13^^----------------------------|
F-------------------------------------------|
C-------------------------------------------|
G-------------------------------------------|
C-------------------------------------------|

-solo-
D--------------------------------------------|
A--(1/4)------13-----------------------------|
F-12^-12^---13--13-12--12-13-12h13p12--10----|
C--------15-------------------------------13-|
G--------------------------------------------|
C--------------------------------------------|

D------------13-15-16-15h16-16h20--16-15-13-|
A-------------------------------------------|
F-------10^---------------------------------|
C-10-13-------------------------------------|
G-------------------------------------------|
C-------------------------------------------|

D----------13^------------------------------|
A-16-13-16----13-16-13h16p13----------------|
F----------------------------15-13----------|
C-------------------------------------------|
G-------------------------------------------|
C-------------------------------------------|

Well this is my first tab so Im not 100% if its correct but Im pretty sure its close... 
havent seen anyone post it yet so I thought I would do it. If there are any 
or anything e-mail me at EmericaMasterII@aol.com. Thanks
Comments