Arch Enemy - Nemesis Chords & Tabs

 

Nemesis Chords & Tabs

Arch Enemy Chords & Tabs

Version: 1 Type: Bass Tab

Nemesis Bass Tab

Arch Enemy- Nemesis
Bass Tabs
Tuning- Drop C (CGCF)

Intro

F|-------------------------------------------------------------------------|
C|-------------------------------------------------------------------------|
G|-3----3-4--6-4----3-4--6-4-----------------------------------------------|
C|-------------------------------------------------------------------------|

F|-------------------------------------------------------------------------|
C|-------------------------------------------------------------------------|
G|-333333333333------------------------------------------------------------|
C|-------------------------------------------------------------------------|


Verse One (x2)

F|--------------------------------------------------------------------------|
C|--------------------------------------------------------------------------|
G|--------------------------------------------------------------------------|
C|-0-0-8-0-7-0-0-8-0-7-0-0-5-0-5h7-0-0-8-0-7-0-0-0--1--6--8--9--------------|

F|--------------------------------------------------------------------------|
C|--------------------------------------------------------------------------|
G|-----------------------------------------------------------------2--4--5--|
C|-0-0-8-0-7-0-0-8-0-7-0-0-5-0-5h7-0-0-8-0-7-0-0-0--1--6--8--9--4-----------|


Interlude One

F|--------------------------------------------------------------------------|
C|--------------------------------------------------------------------------|
G|-333333333333-------------------------------------------------------------|
C|--------------------------------------------------------------------------|


Verse Two (x2)

F|-------------------------------------------------------------------------|
C|-------------------------------------------------------------------------|
G|-------------------------------------------------------------------------|
C|-0-0-8-0-7-0-0-8-0-7-0-0-5-0-5h7-0-0-8-0-7-0-0-0--1--6--8--9-------------|

F|-------------------------------------------------------------------------|
C|-------------------------------------------------------------------------|
G|-----------------------------------------------------------------2--4--5-|
C|-0-0-8-0-7-0-0-8-0-7-0-0-5-0-5h7-0-0-8-0-7-0-0-0--1--6--8--9--4----------|


Chorus One

F|--------------------------------------------------------------------------|
C|--------------------------------------------------------------------------|
G|-1111111111111111--3333333333333333--000000000000000000--1111111111111111-|
C|--------------------------------------------------------------------------|

F|--------------------------------------------------------------------------|
C|--------------------------------------------------------------------------|
G|-5555555555555555--7777777777777777--333333333333333333--5555555577777777-|
C|--------------------------------------------------------------------------|


Interlude Two

F|-------------------------------------------------------------------------|
C|-------------------------------------------------------------------------|
G|-3-4--6-4----------------------------------------------------------------|
C|-------------------------------------------------------------------------|
[ Tab from: http://www.guitartabs.cc/tabs/a/arch_enemy/nemesis_btab.html ]
F|--------------------------------------------------------------------------|
C|--------------------------------------------------------------------------|
G|-333333333333-------------------------------------------------------------|
C|--------------------------------------------------------------------------|


Verse Three (x2)

F|--------------------------------------------------------------------------|
C|--------------------------------------------------------------------------|
G|--------------------------------------------------------------------------|
C|-0-0-8-0-7-0-0-8-0-7-0-0-5-0-5h7-0-0-8-0-7-0-0-0--1--6--8--9--------------|

F|--------------------------------------------------------------------------|
C|--------------------------------------------------------------------------|
G|-----------------------------------------------------------------2--4--5--|
C|-0-0-8-0-7-0-0-8-0-7-0-0-5-0-5h7-0-0-8-0-7-0-0-0--1--6--8--9--4-----------|


Chorus Two

F|--------------------------------------------------------------------------|
C|--------------------------------------------------------------------------|
G|-1111111111111111--3333333333333333--000000000000000000--1111111111111111-|
C|--------------------------------------------------------------------------|

F|-------------------------------------------------------------------------|
C|-------------------------------------------------------------------------|
G|-5555555555555555--7777777777777777--333333333333333333------5-------7---|
C|-------------------------------------------------------------------------|

Bridge

F|-------------------------------------------------------------------------|
C|-------------------------------------------------------------------------|
G|------------We--Are--Ne--me--sis-----------------------------------------|
C|-0000000000--0---0---0---0---0-------------------------------------------|

F|-----------------------------------5-8-7-11-14-13-11-9-7-----------------|
C|-----------------------------4-7-6-----------------------(x4)------------|
G|-----------------------3-6-5---------------------------------------------|
C|-000000000000000000--6---------------------------------------------------|


Chorus Three

F|-------------------------------------------------------------------------|
C|-------------------------------------------------------------------------|
G|-4444444444444444--6666666666666666--3333333333333333--------------------|
C|-------------------------------------------------------3333333333333333--|

F|-------------------------------------------------------------------------|
C|-----------------------------------------------------------3-------5-----|
G|--444444444444444--6666666666666666--3333333333333333--------------------|
C|-------------------------------------------------------------------------|


Guitar Solo

F|-------------------------------------------------------------------------|
C|--333333333333333--5555555555555555--1111111111111111--3333333333333333--|
G|-------------------------------------------------------------------------|
C|-------------------------------------------------------------------------|

F|-------------------------------------------------------------------------|
C|--333333333333333--5555555555555555--1111111111111111------3-------5-----|
G|-------------------------------------------------------------------------|
C|-------------------------------------------------------------------------|


Outro

F|-------------------------------------------------------------------------|
C|-------------------------------------------------------------------------|
G|-3-4--6-4----------------------------------------------------------------|
C|-------------------------------------------------------------------------|