Arch Enemy - Marching On A Dead End Road Chords & Tabs

 

Marching On A Dead End Road Chords & Tabs

Arch Enemy Chords & Tabs

Version: 3 Type: Tab 0 ratings
1 star 2 stars 3 stars 4 stars 5 stars
comments

Marching On A Dead End Road Tab

   
Marching On A Dead End Road - Arch Enemy - Anthems Of Rebellion
Standard Tuning
2 Accoustic Guitar
-----------------------------------------------------------------------------
Really fun to play with two people a kickass melody. This is the best and easiest way i
could make it playable. I think the way i wrote the descending scales is easier to play
than other tabs. Have Fun.
-----------------------------------------------------------------------------
                Email: blankleftempty@hotmail.com 
-----------------------------------------------------------------------------

Intro/Solo

Guitar I
      c1           c2          c3         c4
|----------0-|---------0-|---------0-|-------0-|
|----6-------|----6------|----6------|----8----|
|-7-----7----|-7-----7---|-5-----5---|-6-------|
|-0----------|-8---------|-----------|---------|
|------------|-----------|-----------|---------|
|------------|-----------|-----------|---------|

Guitar II
       (c1)                                      (c2)               (c3)
|-----13-12-13----12-13-12----12-10h12p12-8-10-8^s10------------------------|
|-(12)--------------------------------------------------------10-8-------8-6|
|-(12)-----------------------------------------------------10----------9----|
|-(12)--------------------------------------------------12----------10------|
|---------------------------------------------------------------------------|
|---------------------------------------------------------------------------|

Guitar II
  x3(c4)                     (c1)
|-------0-|-10p8-6p5-8p6p5-6p5--5------------------|
|----14---|(7)------------8---86-8p6p58p6p5-65-----|
|-12------|(7)-----------------------------7--75s7-|
|---------|----------------------------------------|
|---------|----------------------------------------|
|---------|----------------------------------------|
[ Tab from: http://www.guitartabs.cc/tabs/a/arch_enemy/marching_on_a_dead_end_road_tab_ver_3.html ]
Guitar II
   (previous descending scale played over this in sync)(c1)
|-1312p10--1210-----10--------------------------------------|
|-10-----13----13p11--1311p1013p1110--11p10----10-----------|
|-----------------------------------12-----1210--h1210910s/-|
|-----------------------------------------------------------|
|-----------------------------------------------------------|
|-----------------------------------------------------------|

Guitar II
   (c2)               (c3)       (c1)
|-6-8-8s10--10p8h10---8-10-10s12-9--10-s12-10-12-12--12s13-13^-|
|-6-------------------8----------8-----------------------------|
|-7-------------------9----------9-----------------------------|
|---------------------------------------------------------------|
|---------------------------------------------------------------|
|---------------------------------------------------------------|

Chorus / Outro x2

Guitar I
     (o1)         (o2)          (03)        (04)
|------------|------------|------------|------------|
|------------|------------|------------|------------|
|-------7----|-------5----|-------3----|-------6----|
|----7-----7-|----5-----5-|----3-----3-|----5-----5-|
|-5----------|-3----------|-1----------|-4----------|
|------------|------------|------------|------------|

Guitar II
           (o1)                            x2       (o2)
|---s3-1-0--0-1-------------------s3-1-|0h1-----|-1-------|
|-s3------------1-3-0--1-0h1p0---------|----3---|---0---0-|
|-----------------------------0-2------|------2-|-----2---|
|--------------------------------------|--------|---------|
|--------------------------------------|--------|---------|
|--------------------------------------|--------|---------|

Guitar II
         (o3)                    (o2)           (04)            end 2nd time
|----3-1--0-1--------------------s3-1---0h1-----0h3---------3---|---------|
|-------------1-3---------------------3-----3---2---2-------2---|--8------|
|-s3--------------3--5-3h5p3p0-2--------------2-2-----2---2---2-|--7------|
|-------------------------------------------------------0-------|--7------|
|---------------------------------------------------------------|--5------|
|---------------------------------------------------------------|---------|

Questions Comments Criticisms Email: blankleftempty@hotmail.com
Comments