Arch Enemy - Hybrids Of Steel Chords & Tabs

 

Hybrids Of Steel Chords & Tabs

Arch Enemy Chords & Tabs

Version: 1 Type: Tab 0 ratings
1 star 2 stars 3 stars 4 stars 5 stars
comments

Hybrids Of Steel Tab

   
Band-Arch Enemy
Album-Doomsday Machine
Song-Hybrids of Steel
Tuning- C, F, Bb, Eb, G, C

 This is only the Main riff
  Wah (0:22)             .
|----4-------------------------|
|-/5---5\3-(3)-2-3-(3)-2-------|
|------------------------3-3~~-|
|------------------------------|
|------------------------------|
|------------------------------|
[ Tab from: http://www.guitartabs.cc/tabs/a/arch_enemy/hybrids_of_steel_tab.html ]
|---------------------------------|
|---------------------------------|
|-2h3p2---2-----------------------|
|-------5---5-3-2-5-3-2-----------|
|-----------------------5-4-(4)~~-|
|---------------------------------|

|----4------------------------|
|-/5---5\3-(3)-2-3-(3)-2------|
|------------------------3-3~-|
|-----------------------------|
|-----------------------------|
|-----------------------------|

|-5h6p5---5-----------------------|
|-------8---8-6-5-8-6-5-----------|
|-----------------------7-6-(6)~~-|
|---------------------------------|
|---------------------------------|
|---------------------------------|

 I got this from the November 2005 Issue of GW.
Comments