Arch Enemy - Enemy Within Chords & Tabs

 

Enemy Within Chords & Tabs

Arch Enemy Chords & Tabs

Version: 2 Type: Tab 0 ratings
1 star 2 stars 3 stars 4 stars 5 stars
comments

Enemy Within Tab

   
Artist: Arch Enemy
Song: Enemy Within
Album: Wages Of Sin

Tuning: Two Whole Steps Down - C F Bb Eb G C



Intro
|----------------------------|
|----------------------------|
|----------------------------| x4
|----------------------------|
|-222--222--2222--2222--22222|
|-000--000--0000--0000--00000|

Main Riff Rhythm
|----------------------------|
|----------------------------|
|----------------------------| x4
|-999--999--9999--5555--77777|
|-777--777--7777--3333--55555|
|-000--000--0000-------------|

Main Riff Rhythm 2
|----------------------------------|
|----------------------------------|
|----------------------------------| x2
|-----------------55555555-77777777|
|2222222222222222-33333333-55555555|
|0000000000000000------------------|

Main Riff Rhythm 3
|----------------------------------|
|----------------------------------|
|-12--11---9---7---5-------7-------| x2
|-12--11---9---7---5-------7-------|
|-10---9---7---5---3-------5-------|
|----------------------------------|

Main Riff Lead
gtr1
|----------------------------------|
|-0-0-8-0-0-7-0-0-10-0-0-8-0-0-7h8-| 
|----------------------------------| x6
|----------------------------------|
|----------------------------------|
|----------------------------------|

gtr2
|---------------------------------------|
|-0-0-12-0-0-10-0-0-13-0-0-12-0-0-10h12-|
|---------------------------------------|
|---------------------------------------|
|---------------------------------------|
|---------------------------------------|

On the last two phrases play this:
gtr1
|----------------------------------|
|-8----8h10p8--7------5------------|
|----------------------------------|
[ Tab from: http://www.guitartabs.cc/tabs/a/arch_enemy/enemy_within_tab_ver_2.html ]
gtr2
|----------------------------------|
|-12---12h13p12-----15-----16------|
|----------------------------------|

Verse Riff
|--------------------|---------------------|
|--------------------|---------------------|
|--------------------|---------------------|
|--------------------|---------------------|
|---7--8--10--8--77--|---5--3--2-----------|
|-00-00-00--00-00----|-00-00-00-00-5-00-44-|

|--------------------|---------------------|
|--------------------|---------------------|
|--------------------|---------------------|
|--------------------|---------------------|
|--------------------|---5--3--------------|
|--------------------|-00-00-00-421-421-421|

Pre-Chorus Riff
|-------------------------------------|------------------------------|
|-------------------------------------|------------------------------|
|-5----5----5----5----4----4----4----4|-5----5----5----5------77---99|
|-2----2----2----2----2----2----2----2|-2----2----2----2------77---99|
|-0-00-0-00-0-00-0-00-0-00-0-00-0-00-0|-3-33-3-33-3-33-3-33---55---77|
|-------------------------------------|------------------------------|

Solo Rhythm 1
|----------------------------------------------------------|
|----------------------------------------------------------|
|----------------------------------------------------------|
|----------------------------------------------------------|
|-5h8-7--------5h8-7--------5h8-7---5h8-7---5h8-7----------|
|------00000000-----00000000------00------00-----00000000--|

Solo Rhythm 2
|---------------------------|
|---------------------------|
|---------------------------|
|-6----------2------4-------|
|-6----------2------4-------|
|-4----------0------2-------|

i didnt wanna tab the solo but all of this is right. there ya go. email me at
riobravo61@aol.com if you have any questions
Comments