Arch Enemy - Dead Inside Chords & Tabs

 

Dead Inside Chords & Tabs

Arch Enemy Chords & Tabs

Version: 1 Type: Tab 0 ratings
1 star 2 stars 3 stars 4 stars 5 stars
comments

Dead Inside Tab

                      ARCH ENEMY - DEAD INSIDE
                    From the Album BURNING BRIDGES
                   Copyright 1999 - CENTURY MEDIA
                     Version 1.0 - February 2001

Transcribed by: Carsten Mai (angelclaw@gmx.de)

For Questions, Comments, Newest Version, or Corrections contact me

Check Out Death Warp, With More Transcriptions On It:
 http://tiger.towson.edu/~dalvis1

..  - palm mute          /  - slide up to
 \  - slide down to      ~  - vibrato
 h  - hammer on          b  - bend
 p  - pull off            Suffixes for bend
 "  - trem. picking       ph - pinch harmonic
                           f - full bend    h - half bend
*  - see comment           r - release      t - tap bend
X  - percussion mute       ~ - vibrato bend
@  - slight palm mute     () - ghost note, sustained note

Tune Gtr to BEADF#b

Guitar 1
Riff 1
|-------------------------------------------------------------|
|-------------------------------------------------------------|
|-10101010----9---7---5--------10101010----9---7---5----5-7-5-|
|-12121212---10---9---7--------12121212---10---9---7----7-9-7-|
|----------0----0---0---000000----------0----0---0---00-------|
|-------------------------------------------------------------|
           .    .   .   ......          .    .   .   ..

|----------------------------------------0---|
|------------------------------------------0-|
|-10101010----9---7---5--------55555---------|
|-12121212---10---9---7--------77777---2-----|
|----------0----0---0---000000-88888---2-----|
|--------------------------------------0-----|
           .    .   .   ......

Solo Ch. Amott
|-----------20fr19~~----------20----19hr-17--------------------------|
|-20fr20f~~----------------------17---------20----20-----------------|
|--------------------19f(hold)-----------------17----17~~~-----------| 
|--------------------------------------------------------------------| 
|--------------------------------------------------------------------|
|--------------------------------------------------------------------|


                    Riff 2(twice with harmonic thirds)
|------------------|------------------------------------------------------------------------|
|------------5-----|------------5----------------5----------------5-------------------5-----|
|-1----2-4-5---4-5-|-2~---2-4-5---4-5-2~---2-4-5---4-5-2~---2-4-5---4-5-4~-1----2-4-5---4-5-|
|------------------|------------------------------------------------------------------------|
|------------------|------------------------------------------------------------------------|
|------------------|------------------------------------------------------------------------|
       . . .              . . .            . . .            . . .               . . .

|------------------|------------------------------------------------------------------------|
|------------------|----------------------------------------------------8--9----------------|
|------------------|-2----------------2----------------2----------------7--8----------------|
|-2----------------|-2----------------3----------------4----------------5--6----------------|
|-2----------------|-0-00000000000000-0-00000000000000-0-00000000000000---------------------|
|-0----------------|------------------------------------------------------------------------|
                       ..............   ..............   ..............

Riff 3
|-----------------------------------------|
|-----------------------------------------|Gtr I
|-----------------------------------/12---|
|---7-/10-7---5-/9-5---10/14------9-----9-|
|-0---------0--------8-------12/7---------|
|-----------------------------------------|

|-----------------------------------------|
|-----------------------------------------|
|-----------------------------------------|
|---7-/10-7---5-/9-5---10/14------9-/10-9-|
|-0---------0--------8-------12/7---------|
|-----------------------------------------|

|-----------------------------------------|
|-----------------------------------/12---|Gtr II
|-----------------------9/12------7-----7-|
|---10/14-10---9/12-9--------10-----------|
|-0----------0--------8---------7---------|
|-----------------------------------------|

|-----------------------------------------|
|-----------------------------------------|
|-----------------------9/12------7-/9-7--|
|---10/14-10---9/12-9--------10-----------|
|-0----------0--------8---------7---------|
|-----------------------------------------|


Riff 4
|------------------------------------------|
|---------10-10----------9-9---------10-10-|
|---------10-10----------9-9---------10-10-|
|---------10-10----------9-9---------10-10-|
|----------8--8----------7-7----------8--8-|
|-00-0-0---------00-0-0-------00-0-0-------|
  .. . .         .. . .       .. . .

Fill in
|----------------|
|-13-12----------|
|-14-13-13-------|
|-------14-12~~--|
|----------14~~--|
|----------------|

Solo Rhythm pt.I
|--------------------------|
|--------10-10---------9-9-|
|--------10-10---------9-9-|
|--------10-10---------9-9-|
|---------8--8---------7-7-|
|-00000---------00000------|
  .....         .....

Solo Ch. Amott pt. I
(Harmonic dominant scale over E-root)

|---------12h13p12----13-12-------12---------------------------------|
|-15f-15f----------15-------15-13----15-13-12-15-13-12---------------|
|------------------------------------------------------14--13~-------|
|-------------------------------------------------------------/15-14~| 
|--------------------------------------------------------------------|
|--------------------------------------------------------------------|

|-------20----19-17-19h-r-19p17--------------------------------------|
|-17h18----18--------------------------------------------------------|
|--------------------------------------------------------------------|
|--------------------------------------------------------------------| 
|--------------------------------------------------------------------|
|--------------------------------------------------------------------|

|-20"-17"-19"-16"-17"-13h16-13h16-13---------------------------------|
|------------------------------------15f~----------------------------|
|--------------------------------------------------------------------|
|--------------------------------------------------------------------| 
|--------------------------------------------------------------------|
|--------------------------------------------------------------------|

|-16h17p16-13--------------------------------------------------------|
|-------------17-15-13---------------------------------15f~----------|
|----------------------16-14-13--------------------------------------|
|-------------------------------15-14-12-----------------------------| 
|----------------------------------------15-14-12-11~----------------|
|--------------------------------------------------------------------|
                        @  @  @  @  @  @  @  @  @
[ Tab from: http://www.guitartabs.cc/tabs/a/arch_enemy/dead_inside_tab.html ]
|-12h16p12----16-13-12-----------------------------------------------|
|----------15----------15-12h13p12-------15-12-------15-12h13p12-----|
|----------------------------------14-14-------14-13-------------14--|
|--------------------------------------------------------------------| 
|--------------------------------------------------------------------|
|--------------------------------------------------------------------|

|--------------------------------------------------------------------|
|--------------------------------------------------------------------|
|-13-------14-13----------------------------------/15--14h~----------|
|----15-14-------15-14-12--------------------------------------------| 
|-------------------------15----14----12----11~----------------------|
|--------------------------------------------------------------------|

|-------17h20p17----------17h19p17-------22f~------------------------|
|-17h18----------18p17h18----------18p17-----------------------------|
|--------------------------------------------------------------------|
|--------------------------------------------------------------------| 
|--------------------------------------------------------------------|
|--------------------------------------------------------------------|

Solo rythm pt. II & Mike's solo
|------------------------------------------------------------------|
|------------------------------------------------------------------|
|------------------------------------------------------------------|
|------------------------------------------------------------------|
|-------------------------------------------------33333...77777...-|
|-33333...55555...11111...33333...33333...55555...-----------------|(end with D5 chord)
(all palm muted!)

Solo Ch. Amott pt. II
|-10p7---10p7---10p7---10p7---10p7---7-12p9----12p9----12p9----12p9-----12p9----9-|
|------8------8------8------8------8--------10------10------10------10-------10---|gtr I
|---------------------------------------------------------------------------------|
|---------------------------------------------------------------------------------| 
|---------------------------------------------------------------------------------|
|---------------------------------------------------------------------------------|

|-19p15--19p15--19p15--19p15--19p15--15-21p17---21p17---21p17---21p17---21p17---17|
|------15-----15-----15-----15-----15---------17-----17------17------17------17---|gtr II
|---------------------------------------------------------------------------------|
|---------------------------------------------------------------------------------| 
|---------------------------------------------------------------------------------|
|---------------------------------------------------------------------------------|

|--8p5----8p5----8p5----8p5----8p5---5-10p7----10p7----10p7----10p7----10p7-----7-|
|------6------6------6------6------6---------8-------8-------8-------8--------8---|gtr I
|---------------------------------------------------------------------------------|
|---------------------------------------------------------------------------------| 
|---------------------------------------------------------------------------------|
|---------------------------------------------------------------------------------|

|-16p13--16p13--16p13--16p13--16p13--1319p15---19p15---19p15---19p15---19p15---15-|
|------13-----13-----13-----13-----13-------15------15------15------15------15----|gtr II
|---------------------------------------------------------------------------------|
|---------------------------------------------------------------------------------| 
|---------------------------------------------------------------------------------|
|---------------------------------------------------------------------------------|

|-10p7---10p7---10p7---10p7---10p7---7-12p9----12p9----12p9----12p9-----12p9----9-|
|------8------8------8------8------8--------10------10------10------10-------10---|gtr I
|---------------------------------------------------------------------------------|
|---------------------------------------------------------------------------------| 
|---------------------------------------------------------------------------------|
|---------------------------------------------------------------------------------|

|-19p15--19p15--19p15--19p15--19p15--15-21p17---21p17---21p17---21p17---21p17---17|
|------15-----15-----15-----15-----15---------17-----17------17------17------17---|gtr II
|---------------------------------------------------------------------------------|
|---------------------------------------------------------------------------------| 
|---------------------------------------------------------------------------------|
|---------------------------------------------------------------------------------|

aproximate!
|--------------------12-15-12----12-15-12----12-15-12----12-15-12h13h15p13p12-----|
|-----------------13----------13----------13----------13----------------------13--|
|-----9-------/12-----------------------------------------------------------------|
|-/10---12p10---------------------------------------------------------------------| 
|---------------------------------------------------------------------------------|
|---------------------------------------------------------------------------------|

|---------------------16-19-16----16-19p16-17f~----------------------|
|------------------17----------17------------------------------------|
|-----13-------/16---------------------------------------------------|
|-/14----16p14-------------------------------------------------------| 
|--------------------------------------------------------------------|
|--------------------------------------------------------------------|

Solo M. Amott
|-\10-7----7-10/12-10--------\8-5---5-8/10-7-------------------------|
|-------8~------------9~----------6~---------8~----------------------|
|--------------------------------------------------------------------|
|--------------------------------------------------------------------| 
|--------------------------------------------------------------------|
|--------------------------------------------------------------------|

|-\10-7----7-10--15f-r-15p12-15f~-/15-17-19-17-19-20-22f-r-22p20-22~-|
|-------8~-----------------------------------------------------------|
|--------------------------------------------------------------------|
|--------------------------------------------------------------------| 
|--------------------------------------------------------------------|
|--------------------------------------------------------------------|


End riff (let ring)
|-------0---------0---------0---------6--------7-|
|-------0---------0---------0-------8-------10---|
|-----4---------7---------9-------7-------9------|
|---4---------7---------9-------5-------7--------|
|-2---------5---------7--------------------------|
|------------------------------------------------|

Check Out Death Warp, With More Transcriptions On It:
 http://tiger.towson.edu/~dalvis1
Comments