Arch Enemy - Dead Bury Their Dead Chords & Tabs

 

Dead Bury Their Dead Chords & Tabs

Arch Enemy Chords & Tabs

Version: 2 Type: Tab 0 ratings
1 star 2 stars 3 stars 4 stars 5 stars
comments

Dead Bury Their Dead Tab

   
ARCH ENEMY-WAGES OF SIN-DEAD BURY THEIR DEAD: Everything but Solos

Tabbed By:Tildo or:Slayer_69666@hotmail.com
Tuning- C F Bb Eb G C (Low to High)
        (#)
KEY- 1)*______*=Repeat number of times  
     2)/-or-\=Slide to-or-from
     3)!=Tremolo
     4)^=Bend
     5).=Palm Mute
     6)+=Pick Fast
     7)<=Hammer On
     8)>=Pull Off
 


    (4)    Gtr.1
  C------------------------|----------------------|
  G------------------------|----------------------|
 Eb--*---------------------|--------------------*-|
 Bb----------9----10-7--7/9|--------9----10-5--5/7| 
  F----------7----8--5--5/7|--------7----8--3--3/5|
  C---0-0-0-0--0-0--0--0---|-0-0-0-0--0-0--0--0---|
      . . . .  . .  .  .     . . . .  . .  .  .

    (4)    Gtr.1 and 2
  C------------------------|----------------------|
  G------------------------|----------------------|
 Eb-*----------------------|--------------------*-|
 Bb----------9----10-7--7/9|--------9----10-5--5/7| 
  F----------7----8--5--5/7|--------7----8--3--3/5|
  C---0-0-0-0--0-0--0--0---|-0-0-0-0--0-0--0--0---|
      . . . .  . .  .  .     . . . .  . .  .  . 

    (2)    Gtr.2
  C----------------------------|----------------------------|
  G----------------------------|----------------------------|
 Eb-*--------------------------|--------------------------*-|
 Bb-----7<9--7<9--7<9--7<9--7<9|----9<10-9<10-5<7--5<7--5<7-|
  F-----5<7--5<7--5<7--5<7--5<7|----7<8--7<8--3<5--3<5--3<5-| 
  C--0-0---0----0----0----0----|-0-0----0----0---0-----0----|
     . .   .    .    .    .      . .    .    .   .     .

 
    (4)    Gtr.1 and 2
  C----------------------------|----------------------------|
  G----------------------------|----------------------------|
 Eb-*--------------------------|--------------------------*-|
 Bb-----7<9--7<9--7<9--7<9--7<9|----9<10-9<10-5<7--5<7--5<7-|
  F-----5<7--5<7--5<7--5<7--5<7|----7<8--7<8--3<5--3<5--3<5-|
  C--0-0---0----0----0----0----|-0-0---0----0----0-----0----|
     . .   .    .    .    .      . .   .    .    .     .


    (2)     Gtr. 1 and 2
  C----------------------------------|----------------------------------|
  G----------------------------------|----------------------------------|
 Eb-*--------------------------------|--------------------------------*-|
 Bb---------999999998888888855555555-|---------9999999988888888---------|
  F---------777777776666666633333333-|---------777777776666666633333333-|
  C-00000000-------------------------|-00000000----------------11111111-|




    (2)     Gtr.1    "Gtr.2 does solo"
  C----------------------------|----------------------------|
  G----------------------------|----------------------------|
 Eb-*--------------------------|--------------------------*-|
 Bb-----7<9--7<9--7<9--7<9--7<9|----9<10-9<10-5<7--5<7--5<7-|
  F-----5<7--5<7--5<7--5<7--5<7|----7<8--7<8--3<5--3<5--3<5-|
  C--0-0---0----0----0----0----|-0-0---0----0----0-----0----|
     . .   .    .    .    .      . .   .    .    .     .


    (2)     Gtr.1 and 2
  C----------------------------|----------------------------|
  G----------------------------|----------------------------|
 Eb-*--------------------------|--------------------------*-|
 Bb-----7<9--7<9--7<9--7<9--7<9|----9<10-9<10-5<7--5<7--5<7-|
  F-----5<7--5<7--5<7--5<7--5<7|----7<8--7<8--3<5--3<5--3<5-|   
  C--0-0---0----0----0----0----|-0-0---0----0----0-----0----|
     . .   .    .    .    .      . .   .    .    .     .


[ Tab from: http://www.guitartabs.cc/tabs/a/arch_enemy/dead_bury_their_dead_tab_ver_2.html ]
    (2)     Gtr. 1 and 2
  C----------------------------------|----------------------------------|
  G----------------------------------|----------------------------------|
 Eb-*--------------------------------|--------------------------------*-|
 Bb---------999999998888888855555555-|---------9999999988888888---------|
  F---------777777776666666633333333-|---------777777776666666633333333-|
  C-00000000-------------------------|-00000000----------------11111111-|


    (2)     Gtr. 1 and 2  "Triplettes"
  C---------------------------------|--------------------------------|
  G---------------------------------|--------------------------------|
 Eb-*-------------------------------|------------------------------*-|
 Bb---------999-999-888-888-555-555-|--------999-999-888-888---------|
  F-222-222-777-777-666-666-333-333-|222-222-777-777-666-666-333-333-|
  C-000-000-------------------------|000-000-----------------111-111-|
    ... ... ... ... ... ... ... ...  ... ... ... ... ... ... ... ... 


    (2)      Gtr.1 and 2
  C---------------------------------|--------------------------------|
  G---------------------------------|--------------------------------|
 Eb-*-------------------------------|--------------------------------|
 Bb---------------------------------|8-8-8-8-8-8-8-8-8-8-8-8-8-8-8-8-|
  F-2-2-2-2-2-2-2-2-2-2-2-2-2-2-2-2-|6-6-6-6-6-6-6-6-6-6-6-6-6-6-6-6-|
  C-0-0-0-0-0-0-0-0-0-0-0-0-0-0-0-0-|--------------------------------|
    . . . . . . . . . . . . . . . .  . . . . . . . . . . . . . . . . 



  C---------------------------------|----------------|----------------|
  G---------------------------------|----------------|----------------|
 Eb-*-------------------------------|----------------|--------------*-|
 Bb-6-6-6-6-6-6-6-6-6-6-6-6-6-6-6-6-|3-3-3-3-3-3-3-3-|5-5-5-5-5-5-5-5-|
  F-4-4-4-4-4-4-4-4-4-4-4-4-4-4-4-4-|1-1-1-1-1-1-1-1-|3-3-3-3-3-3-3-3-|
  C---------------------------------|----------------|----------------|
    . . . . . . . . . . . . . . . .  . . . . . . . .  . . . . . . . . 

     (2)   Gtr.1     "Gtr.2 does solo"
  C----|---|---|------|
  G----|---|---|------|
 Eb-*--|---|---|----*-|
 Bb----|-8-|-6-|-3-5--|
  F--2-|-6-|-4-|-1-3--|
  C--0-|---|---|------|


   ~TAPPING GUITAR SOLO~


    (4)    Gtr.2    "Gtr.1 does solo"
  C------------------------|----------------------|
  G------------------------|----------------------|
 Eb--*---------------------|--------------------*-|
 Bb----------9----10-7--7/9|--------9----10-5--5/7| 
  F----------7----8--5--5/7|--------7----8--3--3/5|
  C---0-0-0-0--0-0--0--0---|-0-0-0-0--0-0--0--0---|
      . . . .  . .  .  .     . . . .  . .  .  .


   ~Breaks to Bass solo and Drums ONLY~

    (4)
  C------------------------|----------------------|
  G------------------------|----------------------|
 Eb--*---------------------|--------------------*-|
 Bb----------9----10-7--7/9|--------9----10-5--5/7| 
  F----------7----8--5--5/7|--------7----8--3--3/5|
  C---0-0-0-0--0-0--0--0---|-0-0-0-0--0-0--0--0---|
      . . . .  . .  .  .     . . . .  . .  .  .





   (4)     Gtr. 1 and 2
  C----------------------------------|----------------------------------|
  G----------------------------------|----------------------------------|
 Eb-*--------------------------------|--------------------------------*-|
 Bb---------999999998888888855555555-|---------9999999988888888---------|
  F---------777777776666666633333333-|---------777777776666666633333333-|
  C-00000000-------------------------|-00000000----------------11111111-|





    (2)     Gtr. 1 and 2  "Triplettes"
  C---------------------------------|--------------------------------|
  G---------------------------------|--------------------------------|
 Eb-*-------------------------------|------------------------------*-|
 Bb---------999-999-888-888-555-555-|--------999-999-888-888---------|
  F-222-222-777-777-666-666-333-333-|222-222-777-777-666-666-333-333-|
  C-000-000-------------------------|000-000-----------------111-111-|
    ... ... ... ... ... ... ... ...  ... ... ... ... ... ... ... ...
Comments