Arch Enemy - Carry The Cross Chords & Tabs

 

Carry The Cross Chords & Tabs

Arch Enemy Chords & Tabs

Version: 1 Type: Tab 0 ratings
1 star 2 stars 3 stars 4 stars 5 stars
comments

Carry The Cross Tab

   
tuning: C
made by: Soepstengel aka Niels

|---------------------------------------------------------------|
|--12----10----8---7--------------------------------------------|
|--x-----x-----x---x--------------------------------------------|
|--9-----7-----5---4--------------------------------------------|
|---------------------------------------------------------------|
|---------------------------------------------------------------|


|---------------------------------------------------------------|
|---------------------------------------------------------------|
|---------------------------------------------------------------|
|---------------------------------------------------------------|
|-------------33330000000066666666------------------------------|
|-000000002222--------------------------------------------------|


|--------5-------7-------4-------5------------------------------|
|---------------------------------------------------------------|
|------7-------7-------7-------7--------------------------------|
|----7-------7-------7-------7----------------------------------|
|--5-------5-------5-------5------------------------------------|
|---------------------------------------------------------------|


|--------5-------8-------3-------0------------------------------|
|---------------------------------------------------------------|
|------7-------7-------7-------7--------------------------------|
|----7-------7-------7-------7----------------------------------|
|--5-------5-------5-------5------------------------------------|
|---------------------------------------------------------------|

|---------------------------------------------------------------|
|---------------------------------------------------------------|
|--10---9--7-10-9--7---2-2-2------------------------------------|
|---x---x--x--x-x--x---2-2-2-4-4-4------------------------------|
|---8---7--5--8-7--5---0-0-0-4-4-4------------------------------|
|----------------------------2-2-2------------------------------|

[ Tab from: http://www.guitartabs.cc/tabs/a/arch_enemy/carry_the_cross_tab.html ]
By soepstengel


SOLO:
|---------------------------------------------------------------|
|---------------------------------------------------------------|
|---------------------------------------------------------------|
|-10-12-14~--9-10-12~--9-10-12~--7-9-10~--10-12-14~--9-10-12~---|
|---------------------------------------------------------------|
|---------------------------------------------------------------|

|---------------------------------------------------------------|
|---------------------------------------------------------------|
|--------------------9-11-12--12-11-9--9-11-12-12~-11-11--------|
|-9-10-12~--7-9-10~---------------------------------------------|
|---------------------------------------------------------------|
|---------------------------------------------------------------|

|---------------------------------------------------------------|
|---------------------------------------------------------------|
|--9-11-12--12-11-9--9-11-12-14/\16-12h14h16--------------------|
|---------------------------------------------------------------|
|---------------------------------------------------------------|
|---------------------------------------------------------------|


|---------------------------------------------------------------|
|------------------23^------------------------------------------|
|--21/\23-22-21-24----23----------------------------------------|
|---------------------------------------------------------------|
|---------------------------------------------------------------|
|---------------------------------------------------------------|
not finished

|---------------------------------------------------------------|
|---------------------------------------------------------------|
|---------------------------------------------------------------|
|---------------------------------------------------------------|
|---------------------------------------------------------------|
|---------------------------------------------------------------|


copyright kasdolf records
Comments