Arch Enemy - Burning Bridges Chords & Tabs

 

Burning Bridges Chords & Tabs

Arch Enemy Chords & Tabs

Version: 1 Type: Tab 0 ratings
1 star 2 stars 3 stars 4 stars 5 stars
comments

Burning Bridges Tab

   
                        ARCH ENEMY - BURNING BRIDGES
                        From the Album BURNING BRIDGES
                        Copyright 1999 CENTURY MEDIA
                        Version 3.0 - NOVEMBER 2001

Transcribed by: HARIS DURAKOVIC
Version 3.0 by: death8699

For Questions, Comments, Newest Version, or Corrections contact
 HARIS DURAKOVIC: at foreverlorn@gmx.de
 death8699: at archenemies@aol.com

Check Out Death8699.com With More Transcriptions at:
 http://www.death8699.com

.  - palm mute                  /  - slide up to
\  - slide down to              ~  - vibrato             
h  - hammer on                  b  - bend 
p  - pull off                   Suffixes for bend    
ph - pinch harmonic             f - full bend    h - half bend
*  - see comment                r - release      t - tap bend
X  - percussion mute            ~ - vibrato bend
@  - slight palm mute           () - ghost note, sustained note

Tune Gtr to B

--B U R N I N G  B R I D G E S--
[ Tab from: http://www.guitartabs.cc/tabs/a/arch_enemy/burning_bridges_tab.html ]
Riff A
|-------------------------------------------------------------------|
|-------------------------------------------------------------------|
|-------------------------------------------------------------------|Gtrs
|-9--(9)---------------------------9--(9)---------------------------|I&II
|-7--(7)---7---------9--------10~--7--(7)---7----------9--------10~-|
|-0---0---------0--------0---------0---0--------0----------0--------|
|
|
|----------------------------------------------------------------------|
|----------------------------------------------------------------------|
|----------------------------------------------------------------------|Gtr
|----------------------------------------------------------------------| I
|----------7-------9---------10~---------------12--------10---------9~-|
|-8---8-------8--------8-----------10---10----------10--------10-------|
|
|
|----------------------------------------------------------------------|
|----------------------------------------------------------------------|
|----------------------------------------------------------------------|Gtr
|----------------------------------------------10---------9---------7~-| II
|----------7-------9---------10----------------------------------------|
|-8---8-------8--------8-----------10---10----------10--------10-------|


Riff A 3tx


*Riff B
|-------------------------------------------------------------------------|
|-------------------------------------------------------------------------|
|-------------------------------------------------------------------------|Gtr
|-2-----------------------------------------------------------------------| I
|-2----7--9--9b-r--9--7----6----6--7--7--7b-r-7--6--5----7--9--9b-r--9--7-|
|-0-----------------------------------------------------------------------|
|
|
|-------------------------------------------------------------------------|
|-------------------------------------------------------------------------|
|-------------------------------------------------------------------------|Gtr
|-2----5--7--7b-r--7--5----4----4--5--5--7b-r-5--4--4----5--7--7b-r--7--5-| II
|-2-----------------------------------------------------------------------|
|-0-----------------------------------------------------------------------|
|
|
|------------|
|------------|
|------------|Gtrs
|-5----3---5-|I&II
|------------|
|-3----1---3-|


* Repeat Riff B till fade


Check Out Death8699.com With More Transcriptions at:
 http://www.death8699.co
Comments